PrimaNota.ru - самый крупный в мире бесплатный архив песенных текстов, аккордов, табулатур и нот


Domine - Prince In The Scarlet Robe - текст песни, таба, видео

Регистрация Запомнить меня
Войти через:  Facebook Google Twitter Vk Yandex Mail.ru

Domine - Prince In The Scarlet Robe - текст песни, таба, видео

Печатать
Просмотров: 108
DOMINE

THE PRINCE IN THE SCARLET ROBE
from EMPEROR OF THE BLACK RUNES

Tabbed by Paolo Intini

-------------------------------------------------------------------
INTRO-Piano

An acoustic guitar comes on the second time of the piano intro
E-------------------|-------------------|-------------------|-------------------|
B--1-----1-----1----|--0-----0-----0----|--5-----5-----5----|--7-----7-----7----|
G----2-----2-----2--|----0-----0-----0--|----5-----5-----5--|----7-----7-----7--|
D------2-----2------|------0-----0------|------5-----5------|------7-----7------|
A-------------------|-------------------|-------------------|-------------------|
E-------------------|-------------------|-------------------|-------------------|

                                         Here comes the electric
E-------------------|-------------------|-------------------|-------------------|
B--1-----1-----1----|--0-----0-----0----|-------------------|-------------------|
G----2-----2-----2--|----0-----0-----0--|-------------------|-------------------|
D------2-----2------|------0-----0------|-----------------5-|-2------2----------|
A-------------------|-------------------|--3--3--3--3--3--5-|-2---------2-------|
E-------------------|-------------------|--1--1--1--1--1--3-|-0-----------------|
                                           .  .  .  .  .

Repeat these following bars 2 times according the time to the piano
E-------------------|-------------------|-------------------|-------------------|
B-------------------|-------------------|-------------------|-------------------|
G-------------------|-------------------|---5---------------|---7---------------|
D---7---------------|---5---------------|---5---------------|---7---------------|
A---7---------------|---5---------------|---3---------------|---5---------------|
E---5---------------|---3---------------|-------------------|-------------------|

E-------------------|-------------------|-------------------|-------------------|
B-------------------|-------------------|-------------------|-------------------|
G-------------------|-------------------|-------------------|-------------------|
D---7---------------|---5---------------|-----------------5-|-2------2----------|
A---7---------------|---5---------------|--3--3--3--3--3--5-|-2---------2-------|
E---5---------------|---3---------------|--1--1--1--1--1--3-|-0-----------------|
                                           .  .  .  .  .

At the end of the intro play this once
E-------------------|-------------------|-------------------|-------------------|
B-------------------|-------------------|-------------------|-------------------|
G-------------------|-------------------|-------------------|--------------2*---|
D-----------------5-|-2-----------------|-----------------5-|-2------2----------|
A--3--3--3--3--3--5-|-2------2----------|--3--3--3--3--3--5-|-2---------2-------|
E--1--1--1--1--1--3-|-0---------0-------|--1--1--1--1--1--3-|-0-----------------|
   .  .  .  .  .                           .  .  .  .  .

VERSE1 0:55

The first part of the verse is only synth
An acoustic guitar comes after 10 second
E-------------------------------|-------------------------------|
B--1-----1-----1-----1-----1----|--0-----0-----0-----0-----0----|
G----2-----2-----2-----2-----2--|----0-----0-----0-----0-----0--|
D------2-----2-----2-----2------|------0-----0-----0-----0------|
A-------------------------------|-------------------------------|
E-------------------------------|-------------------------------|

                                                  electric
E-------------------------------|-------------------------------|
B-------------------------------|-------------------------------|
G--2-----2-----2-----2-----2----|--1-----1-----1----------------|
D----3-----3-----3-----3-----3--|----2-----2-----2-----2------1-|
A------3-----3-----3-----3------|------2-----2---------2------3-|
E-------------------------------|------------------0-0-0--0-0-3-|
                                                  . .    . .


E-------------------|-------------------|-------------------|-------------------|
B-------------------|-------------------|-------------------|-------------------|
G-------------------|-------------------|-------------------|-------------------|
D---7-------7---7---|---5-------5---5---|---3-------3---3---|---2-------2-----3-|
A---7-------7---7---|---5-------5---5---|---3-------3---3---|---2-------2-----3-|
E---5---5-5-5-5-5-5-|---3---3-3-3-3-3-3-|---1---1-1-1-1-1-1-|---0---0-0-0-0-0-1-|
        . .   .   .         . .   .   .         . .   .   .         . .   . .

E-------------------|-------------------|-------------------|-------------------|
B-------------------|-------------------|-------------------|-------------------|
G-------------------|-------------------|---5-------5---5---|---7-------7-----9-|
D---7-------7---7---|---5-------5---5---|---5-------5---5---|---7-------7-----9-|
A---7-------7---7---|---5-------5---5---|---3---3-3-3-3-3-3-|---5---5-5-5-----7-|
E---5---5-5-5-5-5-5-|---3---3-3-3-3-3-3-|-------------------|-------------------|
        . .   .   .         . .   .   .         . .   .   .         . .

CHORUS 1:40

Only power chords
                                                          x2
E-------------------|-------------------|-------------------|
B-------------------|-------------------|-------------------|
G---5--(5)----------|---7--(7)----------|--10-(10)----------|
D---5--(5)---5--(5)-|---7--(7)---7--(7)-|--10-(10)--10-(10)-|
A---3--(3)---5--(5)-|---5--(5)---7--(7)-|---8--(8)--10-(10)-|
E------------3--(3)-|------------5--(5)-|------------8--(8)-|

 1st ending           2nd ending
|-------------------||-------------------||
|-------------------||-------------------||
|---7--(7)----------||---7-------9-s10---||
|---7--(7)---7--(7)-||---7-------9-s10---||
|---5--(5)---7--(7)-||---5-------7-s-8---||
|------------5--(5)-||-------------------||


INTERLUDE 2:02

During the interlude the 2nd guitar play the chorus chords                               
                x2
E-------------------|-------------------|--------------------------------|--------------------------------|
B-------------------|---3-3-3-3-3h5-----|--------------------------------|--------------5---3-------3---5-|
G---9(1\2b)---r9----|----------------2v-|---2---4---5v---4---2---4---0---|--2---4---5v----------5---------|
D-------------------|-------------------|--------------------------------|--------------------------------|
A-------------------|-------------------|--------------------------------|--------------------------------|
E-------------------|-------------------|--------------------------------|--------------------------------|


VERSE2 2:24
(Using the last two bars of the verse 1)

CHORUS 2:48


BRIDGE 3:10
                                                                             x2
E-------------------|-------------------|-------------------|-------------------|
B-------------------|-------------------|-------------------|-------------------|
G--10--10-----------|---9---9-----------|-------------------|---5---5---7---9---|
D--10--10-----------|---9---9-----------|---7---7---9---9---|---5---5---7---9---|
A---8---8-----------|---7---7-----------|---7---7---9---9---|---3---3---5---7---|
E-------------------|-------------------|---5---5---7---7---|-------------------|


INTERLUDE 3:32


SOLO 3:55
                                                                                         
             x2
E-------------------|-------------------|--------------------------------|--------------------------------|
B-------------------|-1515151515h17-----|--------------------------------|-------------17--15------15--17-|
G--21(1\2b)--r21----|---------------14v-|--14---16--17v--16--14--16--12--|-14--16--17v---------17---------|
D-------------------|-------------------|--------------------------------|--------------------------------|
A-------------------|-------------------|--------------------------------|--------------------------------|
E-------------------|-------------------|--------------------------------|--------------------------------|

E-7-5-8h7h5-8h7h5-8h7h5-8h7h5-|-8-7-10h8h7-10h8h7-10h8h7-10h8h7-|-8-10-12-----------|-7-8-10---8-10-12--|
B-----------------------------|---------------------------------|----------10-12-13-|-------------------|
G-----------------------------|---------------------------------|-------------------|-------------------|
D-----------------------------|---------------------------------|-------------------|-------------------|
A-----------------------------|---------------------------------|-------------------|-------------------|
E-----------------------------|---------------------------------|-------------------|-------------------|


E-19-17-20h19h17-20h19h17-20h19h17-20h19h17-|-20-19-22h20h19-22h20h19-22h20h19-22h20h19-|
B-------------------------------------------|-------------------------------------------|
G-------------------------------------------|-------------------------------------------|
D-------------------------------------------|-------------------------------------------|
A-------------------------------------------|-------------------------------------------|
E-------------------------------------------|-------------------------------------------|

                        ending
                        4:40
-20-22-24-----------||-19-20-22--20-22-24--||-19-20*-||
-----------22-24-25-||---------------------||--------||
--------------------||---------------------||--------||
--------------------||---------------------||--------||
--------------------||---------------------||--------||
--------------------||---------------------||--------||

Rhytm during solo: | A5 | B5 | C5 | D5 E5 |


HARMONY-Piano 4:42


HARMONY-Guitar 4:54
                                     x2
E-------------------|-------------------|
B-------------------|-------------------|
G-------------------|-------------------|
D------7---5---3--2-|------3---2---0----|
A--7----------------|-3--------------3*-|
E-------------------|-------------------|

Rhytm during harmony: | A5 | F5 |


CHORUS x2 5:06


INTERLUDE 5:51


2^BRIDGE-Synth 6:13

Guitars take their rhytms according to synth melody
Rhytm is the same used during the solo


HARMONY-Guitarx1 6:36


END

Great Enrico Paoli and great all Domine...
The song is quite simple but really nice.
Enjoy with it!

Paolo Intini
Добавлено: 20.07.2012
Другие материалы по этой песне:
  • Аккорды и текст

Страница создана 20.07.2012
http://primanota.ru/domine/prince-in-the-scarlet-robe-chords.htm
Привет, Гость.
Предлагаем пройти революционный курс по гитаре.
Подарок от PrimaNota.Ru, забирай!