PrimaNota.ru - самый крупный в мире бесплатный архив песенных текстов, аккордов, табулатур и нот


Domine - Chronicles Of The Black Sword - бас-таба, видео

Регистрация Запомнить меня
Войти через:  Facebook Google Twitter Vk Yandex Mail.ru

Domine - Chronicles Of The Black Sword - бас-таба, видео

Печатать
Просмотров: 118
As recorded by Domine
(From the 1998 Album CHAMPION ETERNAL)

Transcribed by figliodigloin
	

Words and Music by Domine

Gtr I (E A D G) - 'Untitled'

 Intro
  Q=90
 4/4
  Gtr I
  Wx28
|---------|
|---------|
|---------|
|---------|


           D                       C
 2/4      4/4
             |-3-|   |-3-|   |-3-| |-3-|
  H        E S S S E S S S E S S S E E E  8x
|------||---------------------------------||
|------||o-------------------------------o||
|------||o-5-5-5-5-5-5-5-5-5-5-5-5-3-3-3-o||
|------||---------------------------------||


    A                       G#      A
      |-3-|   |-3-|   |-3-| |-3-|     |-3-| |-3-|   |-3-| |-3-|
    E S S S E S S S E S S S E E E   E S S S E E E E S S S E E E
||--------------------------------|------------------------------||
||o-------------------------------|-----------------------------o||
||o-------------------------------|-----------------------------o||
||--5-5-5-5-5-5-5-5-5-5-5-5-4-4-4-|-5-5-5-5-5-5-5-5-5-5-5-5-6-3--||


    D                       C
      |-3-|   |-3-|   |-3-| |-3-|
    E S S S E S S S E S S S E E E  4x
||---------------------------------||
||o-------------------------------o||
||o-5-5-5-5-5-5-5-5-5-5-5-5-3-3-3-o||
||---------------------------------||


    A                       G       A
      |-3-|   |-3-|   |-3-| |-3-|     |-3-| |-3-|   |-3-| |-3-|
    E S S S E S S S E S S S E E E   E S S S E E E E S S S E E E
||--------------------------------|------------------------------||
||o-------------------------------|-----------------------------o||
||o-------------------------------|-----------------------------o||
||--5-5-5-5-5-5-5-5-5-5-5-5-3-3-3-|-5-5-5-5-5-5-5-5-5-5-5-5-6-3--||


   Pre-Verse
    Q.=90
    D       C         Bb      A         D       C         G       A
   12/8
    H.      H.        H.      H.        H.      H.        H.      H.     3x
||------------------|-----------------|-----------------|----------------||
||o-----------------|-----------------|-----------------|---------------o||
||o-5-------3-------|-1-------0-------|-5-------3-------|---------------o||
||------------------|-----------------|-----------------|-3-------5------||


    Q=90
    D                     C
   4/4
      |-3-| |-3-|           |-3-|   |-3-|   |-3-| |-3-|
    E S S S E E E Q  Q    E S S S E S S S E S S S E E E   4x
||----------------------|---------------------------------||
||o---------------------|--------------------------------o||
||o-5-5-5-5-5-5-5-1--0--|-3-3-3-3-3-3-3-3-3-3-3-3-3-3-3--o||
||----------------------|---------------------------------||


  Bb                                A
    |-3-|   |-3-|   |-3-|   |-3-|     |-3-|   |-3-|   |-3-|
  E S S S E S S S E S S S E S S S   E S S S E S S S E S S S Q
|---------------------------------|----------------------------|
|---------------------------------|----------------------------|
|-1-1-1-1-1-1-1-1-1-1-1-1-1-1-1-1-|-0-0-0-0-0-0-0-0-0-0-0-0----|
|---------------------------------|----------------------------|


   Verse
    D                               Bb
      |-3-|   |-3-|   |-3-| |-3-|     |-3-|   |-3-|   |-3-| |-3-|
    E S S S E S S S E S S S E E E   E S S S E S S S E S S S E E E
||--------------------------------|--------------------------------|
||o-------------------------------|--------------------------------|
||o-5-5-5-5-5-5-5-5-5-5-5-5-5-5-5-|-1-1-1-1-1-1-1-1-1-1-1-1-1-0-1--|
||--------------------------------|--------------------------------|


  C                               G               A
    |-3-|   |-3-|   |-3-| |-3-|     |-3-|   |-3-|   |-3-|   |-3-|
  E S S S E S S S E S S S E E E   E S S S E S S S E S S S E S S S
|-------------------------------|-----------------------------------||
|-------------------------------|----------------------------------o||
|-3-3-3-3-3-3-3-3-3-3-3-3-3-3-3-|----------------------------------o||
|-------------------------------|-3-3-3-3-3-3-3-3-5-5-5-5-5-5-5-5---||


    Bb                              C
      |-3-|   |-3-|   |-3-| |-3-|     |-3-|   |-3-|   |-3-| |-3-|
    E S S S E S S S E S S S E E E   E S S S E S S S E S S S E E E
||--------------------------------|--------------------------------|
||o-------------------------------|--------------------------------|
||o-1-1-1-1-1-1-1-1-1-1-1-1-1-0-1-|-3-3-3-3-3-3-3-3-3-3-3-3-3-3-3--|
||--------------------------------|--------------------------------|


                                  1.
  Bb                              A
    |-3-|   |-3-|   |-3-| |-3-|     |-3-|   |-3-|   |-3-| |-3-|
  E S S S E S S S E S S S E E E   E S S S E S S S E S S S E E E
|-------------------------------|--------------------------------||
|-------------------------------|-------------------------------o||
|-1-1-1-1-1-1-1-1-1-1-1-1-1-0-1-|-0-0-0-0-0-0-0-0-0-0-0-0-0-0-0-o||
|-------------------------------|--------------------------------||


  2.
  A               C#
    |-3-|   |-3-|   |-3-|   |-3-|
  E S S S E S S S E S S S E S S S
|-----------------------------------|
|-----------------------------------|
|-0-0-0-0-0-0-0-0-4-4-4-4-4-4-4-4---|
|-----------------------------------|


   Chorus
    D                               Bb
      |-3-|   |-3-|   |-3-| |-3-|     |-3-|   |-3-|   |-3-| |-3-|
    E S S S E S S S E S S S E E E   E S S S E S S S E S S S E E E
||--------------------------------|--------------------------------|
||o-------------------------------|--------------------------------|
||o-5-5-5-5-5-5-5-5-5-5-5-5-5-5-5-|-1-1-1-1-1-1-1-1-1-1-1-1-1-0-1--|
||--------------------------------|--------------------------------|


  C                               G               A
    |-3-|   |-3-|   |-3-| |-3-|     |-3-|   |-3-|   |-3-|   |-3-|
  E S S S E S S S E S S S E E E   E S S S E S S S E S S S E S S S
|-------------------------------|-----------------------------------||
|-------------------------------|----------------------------------o||
|-3-3-3-3-3-3-3-3-3-3-3-3-3-3-3-|----------------------------------o||
|-------------------------------|-3-3-3-3-3-3-3-3-5-5-5-5-5-5-5-5---||


  Bb                              C
    |-3-|   |-3-|   |-3-| |-3-|     |-3-|   |-3-|   |-3-| |-3-|
  E S S S E S S S E S S S E E E   E S S S E S S S E S S S E E E
|-------------------------------|-------------------------------|
|-------------------------------|-------------------------------|
|-1-1-1-1-1-1-1-1-1-1-1-1-1-0-1-|-3-3-3-3-3-3-3-3-3-3-3-3-3-3-3-|
|-------------------------------|-------------------------------|


  Bb                              C               C#
    |-3-|   |-3-|   |-3-| |-3-|     |-3-|   |-3-|   |-3-|   |-3-|
  E S S S E S S S E S S S E E E   E S S S E S S S E S S S E S S S
|-------------------------------|----------------------------------|
|-------------------------------|----------------------------------|
|-1-1-1-1-1-1-1-1-1-1-1-1-1-0-1-|-3-3-3-3-3-3-3-3-4-4-4-4-4-4-4-4--|
|-------------------------------|----------------------------------|


   Interlude
    D                             D
      |-3-| |-3-|   |-3-| |-3-|     |-3-| |-3-|   |-3-| |-3-|
    E S S S E E E E S S S E E E   E S S S E E E E S S S E E E 17x
||------------------------------|------------------------------||
||o-----------------------------|-----------------------------o||
||o-5-5-5-5-5-5-5-5-5-5-5-5-5-5-|-5-5-5-5-5-5-5-5-5-5-5-5-5-5-o||
||------------------------------|------------------------------||


   Guitar Solo
    D                             C
      |-3-| |-3-|   |-3-| |-3-|     |-3-| |-3-|   |-3-| |-3-|
    E S S S E E E E S S S E E E   E S S S E E E E S S S E E E
||------------------------------|-----------------------------|
||o-----------------------------|-----------------------------|
||o-5-5-5-5-5-5-5-5-5-5-5-5-5-5-|-3-3-3-3-3-3-3-3-3-3-3-3-3-3-|
||------------------------------|-----------------------------|


  F                             G             A
    |-3-| |-3-|   |-3-| |-3-|     |-3-| |-3-|   |-3-| |-3-|
  E S S S E E E E S S S E E E   E S S S E E E E S S S E E E   6x
|-----------------------------|-------------------------------||
|-----------------------------|------------------------------o||
|-----------------------------|------------------------------o||
|-1-1-1-1-1-1-1-1-1-1-1-1-1-1-|-3-3-3-3-3-3-3-5-5-5-5-5-5-5---||


    Bb                              C
      |-3-|   |-3-|   |-3-| |-3-|     |-3-|   |-3-|   |-3-| |-3-|
    E S S S E S S S E S S S E E E   E S S S E S S S E S S S E E E
||--------------------------------|--------------------------------|
||o-------------------------------|--------------------------------|
||o-1-1-1-1-1-1-1-1-1-1-1-1-1-0-1-|-3-3-3-3-3-3-3-3-3-3-3-3-3-3-3--|
||--------------------------------|--------------------------------|


  Bb                              A
    |-3-|   |-3-|   |-3-| |-3-|     |-3-|   |-3-|   |-3-| |-3-|
  E S S S E S S S E S S S E E E   E S S S E S S S E S S S E E E
|-------------------------------|--------------------------------||
|-------------------------------|-------------------------------o||
|-1-1-1-1-1-1-1-1-1-1-1-1-1-0-1-|-0-0-0-0-0-0-0-0-0-0-0-0-0-0-0-o||
|-------------------------------|--------------------------------||


   Chorus
    D                               Bb
      |-3-|   |-3-|   |-3-| |-3-|     |-3-|   |-3-|   |-3-| |-3-|
    E S S S E S S S E S S S E E E   E S S S E S S S E S S S E E E
||--------------------------------|--------------------------------|
||o-------------------------------|--------------------------------|
||o-5-5-5-5-5-5-5-5-5-5-5-5-5-5-5-|-1-1-1-1-1-1-1-1-1-1-1-1-1-0-1--|
||--------------------------------|--------------------------------|


  C                               G               A
    |-3-|   |-3-|   |-3-| |-3-|     |-3-|   |-3-|   |-3-|   |-3-|
  E S S S E S S S E S S S E E E   E S S S E S S S E S S S E S S S
|-------------------------------|-----------------------------------||
|-------------------------------|----------------------------------o||
|-3-3-3-3-3-3-3-3-3-3-3-3-3-3-3-|----------------------------------o||
|-------------------------------|-3-3-3-3-3-3-3-3-5-5-5-5-5-5-5-5---||


  Bb                              C
    |-3-|   |-3-|   |-3-| |-3-|     |-3-|   |-3-|   |-3-| |-3-|
  E S S S E S S S E S S S E E E   E S S S E S S S E S S S E E E
|-------------------------------|-------------------------------|
|-------------------------------|-------------------------------|
|-1-1-1-1-1-1-1-1-1-1-1-1-1-0-1-|-3-3-3-3-3-3-3-3-3-3-3-3-3-3-3-|
|-------------------------------|-------------------------------|


                                              Outro
  Bb                              C                         D
    |-3-|   |-3-|   |-3-| |-3-|                             |-3-| |-3-|
  E S S S E S S S E S S S E E E   Q  H.        Wx2          E E E E E E H
|-------------------------------|------------|------------|------------------*|
|-------------------------------|------------|------------|------------------*|
|-1-1-1-1-1-1-1-1-1-1-1-1-1-0-1-|-3----------|------------|-5-5-5-5-5-5-5----*|
|-------------------------------|------------|------------|------------------*|



Duration Legend
---------------
W - whole; H - half; Q - quarter; E - 8th; S - 16th; T - 32nd; X - 64th; a - acciaccatura
+ - note tied to previous; . - note dotted; .. - note double dotted
Uncapitalized letters represent notes that are staccato (1/2 duration)
Irregular groupings are notated above the duration line
Duration letters will always appear directly above the note/fret number it represents the
duration for.  Duration letters with no fret number below them represent rests.  Multi-
bar rests are notated in the form Wxn, where n is the number of bars to rest for.  Low
melody durations appear below the staff

Tablature Legend
----------------
 h   - hammer-on
 p   - pull-off
 b   - bend
 pb  - pre-bend
 r   - bend release (if no number after the r, then release immediately)
 /\  - slide into or out of (from/to "nowhere")
 s   - legato slide
 S   - shift slide
 - natural harmonic
[n]  - artificial harmonic
n(n) - tapped harmonic
 ~   - vibrato
 tr  - trill
 T   - tap
 TP  - trem. picking
 PM  - palm muting
\n/  - tremolo bar dip; n = amount to dip
 \n  - tremolo bar down
 n/  - tremolo bar up
/n\  - tremolo bar inverted dip
 =   - hold bend; also acts as connecting device for hammers/pulls
 <> - volume swell (louder/softer)
 x   - on rhythm slash represents muted slash
 o   - on rhythm slash represents single note slash

Misc Legend
-----------
 |  - bar
||  - double bar
||o - repeat start
o|| - repeat end
*|  - double bar (ending)
 :  - bar (freetime)
 $  - Segno
 &  - Coda
Tempo markers -  = BPM(8/16=s8/s16), where s8 = swing 8ths, s16 = swing 16ths

Добавлено: 21.04.2012
Другие материалы по этой песне:

Страница создана 14.03.2012
http://primanota.ru/domine/chronicles-of-the-black-sword-chords.htm
Привет, Гость.
Предлагаем пройти революционный курс по гитаре.
Подарок от PrimaNota.Ru, забирай!