PrimaNota.ru - самый крупный в мире бесплатный архив песенных текстов, аккордов, табулатур и нот


Скарлатти Доменико - Sonata K322 - таба, видео

Регистрация Запомнить меня
Войти через:  Facebook Google Twitter Vk Yandex Mail.ru

Скарлатти Доменико - Sonata K322 - таба, видео

Печатать
Просмотров: 98
				Sonata K.322
						
							Domenico Scarlatti
				
Allegro


Tuning : E A D G B E 	Time Signature 4/4 	

 |       |       |       |        |       |       |       |        
|0---------------0---------------|0-----------------------5---0---|
|--------------------------------|--------------------------------|
|--------------------------------|--------------------------------|
|--------------------------------|--------------------------------|
|--------------------------------|0---------------4---------------|
|--------------------------------|--------------------------------|

 |       |       |       |        |       |       |       |        
|4---2---0-----------------------|--------0---------------5-------|
|------------3---2-------0-------|2---3-----------------------2---|
|--------------------------------|--------------------------------|
|0---------------2---------------|--------------------------------|
|--------------------------------|0---------------0---------------|
|--------------------------------|--------------------------------|

 |       |       |       |        |       |       |       |        
|0-------------------------------|----------------------------0---|
|----3---2---0-------------------|------------------------2-------|
|----------------2-------1-------|2-------------------------------|
|0---------------2---------------|--------2-----------------------|
|--------------------------------|0---------------0---------------|
|--------------------------------|--------------------------------|

 |       |       |       |        |       |       |       |        
|--------------------------------|----------------------------0---|
|3-------0---------------3-------|3-------2---------------2-------|
|--------------------------------|--------------------------------|
|----------------2---------------|--------------------------------|
|0-------------------------------|0---------------0---------------|
|----------------4---------------|--------------------------------|

 |       |       |       |        |       |       |       |        
|--------7-----------------------|------------------------5-------|
|3-----------------------3-------|3-------2-------------------2---|
|--------------------------------|--------------------------------|
|--------------------------------|--------------------------------|
|0-------------------------------|0---------------4---------------|
|----------------4---------------|--------------------------------|

 |       |       |       |        |       |       |       |        
|--------2-----------------------|------------------------0-------|
|0-------------------------------|----------------------------0---|
|------------------------2-------|2-------1-----------------------|
|0---------------1---------------|2---------------2---------------|
|--------------------------------|--------------------------------|
|--------------------------------|--------------------------------|

 |       |       |       |        |       |       |       |        
|--------2-----------------------|------------------------0-------|
|0-------------------------------|----------------------------0---|
|------------------------2-------|2-------1-----------------------|
|1---------------1---------------|2---------------2---------------|
|--------------------------------|--------------------------------|
|--------------------------------|--------------------------------|

 |       |       |       |        |       |       |       |        
|------------------------0-------|------------------------0-------|
|0-------0-------0---------------|--------------------------------|
|----------------------------1---|1-------2-------------------2---|
|0---------------0---------------|--------------------------------|
|--------------------------------|4---------------4---------------|
|--------------------------------|--------------------------------|

 |       |       |       |        |       |       |       |        
|------------------------0-------|------------------------5-------|
|--------0-------------------0---|0-------2-------------------2---|
|2-------------------------------|--------------------------------|
|--------------------------------|--------------------------------|
|--------------------------------|0---------------0---------------|
|4---------------4---------------|--------------------------------|

 |       |       |       |        |       |       |       |        
|--------7---------------7---0---|0-------7---0---2-------7---2---|
|4-----------4---4---------------|--------------------------------|
|----------------2---------------|1-------------------------------|
|--------------------------------|----------------1---------------|
|0-------------------------------|--------------------------------|
|--------------------------------|--------------------------------|

 |       |       |       |        |       |       |       |        
|4-------5---7---5---4---2---0---|------------------------7---3---|
|--------------------------------|4-------0-----------------------|
|--------------------------------|--------------------------------|
|2-------------------------------|--------------------------------|
|----------------0---------------|2-------------------------------|
|--------------------------------|--------------------------------|

 |       |       |       |        |       |       |       |        
|3-------3-------3-------3-------|5-3-2---0---------------7---0---|
|--------------------------------|--------------------------------|
|--------------------------------|--------------------------------|
|2---------------0---------------|--------------------------------|
|--------------------------------|3---------------3---------------|
|--------------------------------|--------------------------------|

 |       |       |       |        |       |       |       |        
|0-------0-------0-------0-------|0---------------8---------------|
|--------------------------------|----3---1-----------------------|
|--------------------------------|--------------------------------|
|--------------------------------|--------------------------------|
|--------------------------------|0---------------0---------------|
|3---------------3---------------|--------------------------------|

 |       |       |       |        |       |       |       |        
|--------7---5---3---2---0-------|0-------------------------------|
|----------------------------4---|------------------------0-------|
|--------------------------------|----------------------------0---|
|--------------------------------|2-------------------------------|
|2---------------2---------------|--------------------------------|
|--------------------------------|----------------0---------------|

 |       |       |       |        |       |       |       |        
|--------------------------------|------------------------0-------|
|--------------------------------|----------------------------1---|
|0-------0-------0-------0-------|1-------2-----------------------|
|2---------------0---------------|--------------------------------|
|--------------------------------|3---------------3---------------|
|--------------------------------|--------------------------------|

 |       |       |       |        |       |       |       |        
|--------------------------------|------------------------7---3---|
|--------------------------------|--------0-----------------------|
|2-------2-------2-------2-------|3-------------------------------|
|--------------------------------|--------------------------------|
|3-------------------------------|--------------------------------|
|--------------------------------|3---------------3---------------|

 |       |       |       |        |       |       |       |        
|0-------0-------0-------0-------|0---------------8---------------|
|--------------------------------|----3---1-----------------------|
|--------------------------------|--------------------------------|
|--------------------------------|--------------------------------|
|--------------------------------|0---------------0---------------|
|3-------------------------------|--------------------------------|

 |       |       |       |        |       |       |       |        
|--------7---5---3---2---0-------|0---------------------------0---|
|----------------------------4---|--------0-------2-------4-------|
|--------------------------------|--------------------------------|
|--------------------------------|2-------------------------------|
|2---------------2---------------|----------------0---------------|
|--------------------------------|--------------------------------|

 |       |       |       |        |       |       |       |        
|--------------------------------|--------0-----------------------|
|0-------------------------------|----------------2-------0-------|
|--------2---1---2-------1-------|1---------------------------2---|
|----------------------------4---|--------------------------------|
|--------------------------------|----------------0---------------|
|4---------------2---------------|0-------------------------------|

 |       |       |       |        |       |       |       |        
|--------------------------------|----------------------------0---|
|--------------------------------|--------0-------2-------4-------|
|1-------------------------------|--------------------------------|
|--------4---2---4-------2---1---|2-------------------------------|
|2---------------2---------------|----------------0---------------|
|--------------------------------|0-------------------------------|

 |       |       |       |        |       |       |       |        
|--------------------------------|--------0-----------------------|
|0-------------------------------|----------------4---2---0-------|
|--------2---1---2-------1-------|1---------------------------2---|
|----------------------------4---|--------------------------------|
|--------------------------------|----------------0---------------|
|4---------------2---------------|0-------------------------------|

 |       |       |       |        |       |       |       |        
|--------------------------------|------------------------0-------|
|--------------------------------|----------------------------0---|
|1-------------------------------|--------------------------------|
|--------4---2---4-------2---1---|2-------------------------------|
|2---------------2---------------|--------------------------------|
|--------------------------------|--------------------------------|

 |       |       |       |        |       |       |       |        
|--------------------------------|------------------------0-------|
|0-------0-------0-------0-------|--------0-------------------0---|
|--------------------------------|1---2---------------------------|
|2---------------2---------------|0---------------0---------------|
|--------------------------------|--------------------------------|
|--------------------------------|--------------------------------|

 |       |       |       |        |       |       |       |        
|--------------------------------|------------------------9---6---|
|0-------0-------0-------0-------|----0---2-----------------------|
|--------------------------------|3-------------------------------|
|0---------------0---------------|--------------------------------|
|--------------------------------|4---------------4---------------|
|--------------------------------|--------------------------------|

 |       |       |       |        |       |       |       |        
|3-------0-------0---------------|----0---2---------------7-------|
|------------------------2-------|3---------------------------7---|
|--------------------------------|--------------------------------|
|4---------------4---------------|--------------------------------|
|--------------------------------|2---------------2---------------|
|--------------------------------|--------------------------------|

 |       |       |       |        |       |       |       |        
|2-------7---2---2-------2-------|7---3---5---2---0-------5---0---|
|--------------------------------|--------------------------------|
|--------------------------------|0-------------------------------|
|--------------------------------|--------------------------------|
|0---------------0---------------|--------------------------------|
|--------------------------------|--------------------------------|

 |       |       |       |        |       |       |       |        
|0-------5---0---0-------0-------|5---2---3---0-----------5-------|
|--------------------------------|----------------3-----------3---|
|--------------------------------|--------------------------------|
|--------------------------------|----------------4---------------|
|--------------------------------|--------------------------------|
|3---------------3---------------|2-------------------------------|

 |       |       |       |        |       |       |       |        
|--------5---------------5-------|--------0---------------0-------|
|2-----------2---0-----------0---|----------------0-----------0---|
|--------------------------------|2-----------2-------------------|
|2---------------0---------------|--------------------------------|
|--------------------------------|4-------------------------------|
|--------------------------------|----------------4---------------|

 |       |       |       |        |       |       |       |        
|--------5---------------5-------|0-------2---0-------------------|
|2-----------2---3-----------3---|----------------3---2---0-------|
|--------------------------------|----------------------------2---|
|--------------------------------|----------------0---------------|
|0---------------2---------------|4-------------------------------|
|--------------------------------|--------------------------------|

 |       |       |       |        |       |       |       |        
|------------------------0-------|--------------------------------|
|----------------------------1---|1-------1-------1-------1-------|
|1-------------------------------|2---------------0---------------|
|2-------2-----------------------|--------------------------------|
|--------------------------------|--------------------------------|
|--------------------------------|--------------------------------|

 |       |       |       |        |       |       |       |        
|------------------------0-------|--------------------------------|
|3-1-0---------------------------|--------------------------------|
|--------2-------------------2---|2-------2-------2-------2-------|
|3---------------3---------------|--------------------------------|
|--------------------------------|3---------------3---------------|
|--------------------------------|--------------------------------|

 |       |       |       |        |       |       |       |        
|----------------1---------------|--------0-----------------------|
|--------0---3-------------------|------------3---1---0-----------|
|----1---------------------------|------------------------2---1---|
|3---------------0---------------|2-------------------------------|
|5-------------------------------|--------------------------------|
|--------------------------------|----------------0---------------|

 |       |       |       |        |       |       |       |        
|------------------------0-------|--------------------------------|
|----------------------------1---|1-------1-------1-------1-------|
|2-------------------------------|2---------------0---------------|
|--------------------------------|--------------------------------|
|0-------------------------------|--------------------------------|
|--------------------------------|--------------------------------|

 |       |       |       |        |       |       |       |        
|------------------------5---1---|--------------------------------|
|2-------3-----------------------|3-------3-------3-------3-------|
|--------------------------------|--------------------------------|
|3---------------3---------------|3-------------------------------|
|--------------------------------|--------------------------------|
|--------------------------------|--------------------------------|

 |       |       |       |        |       |       |       |        
|--------0---------------8---5---|0-------0-------0-------0-------|
|4-------------------------------|--------------------------------|
|--------------------------------|--------------------------------|
|--------------------------------|--------------------------------|
|3---------------3---------------|3-------------------------------|
|--------------------------------|--------------------------------|

 |       |       |       |        |       |       |       |        
|1-----------------------10--7---|0-------8---5-----------7---4---|
|--------3-----------------------|----------------3---------------|
|--------------------------------|--------------------------------|
|0---------------0---------------|2-------------------------------|
|--------------------------------|--------------------------------|
|--------------------------------|----------------0---------------|

 |       |       |       |        |       |       |       |        
|5-------0-------2-------4---5---|2---0---------------------------|
|--------------------------------|--------3---2---3-------2---0---|
|--------------------------------|--------------------------------|
|----------------0---------------|--------------------------------|
|0-------------------------------|4---------------2---------------|
|--------------------------------|--------------------------------|

 |       |       |       |        |       |       |       |        
|--------5-------4---2---0-------|--------------------------------|
|2---------------------------3---|2-------0-------0---------------|
|--------------------------------|------------2-----------2---1---|
|----------------0---------------|2-------------------------------|
|0-------------------------------|--------------------------------|
|--------------------------------|----------------0---------------|

 |       |       |       |        |       |       |       |        
|--------0-------2-------4---5---|0-------------------------------|
|--------------------------------|--------3---2---3-------2---0---|
|2-------------------------------|--------------------------------|
|----------------0---------------|--------------------------------|
|0-------------------------------|4---------------2---------------|
|--------------------------------|--------------------------------|

 |       |       |       |        |       |       |       |        
|--------5-----------------------|--------------------------------|
|2---------------7-------5---3---|2-------0-------0---------------|
|--------------------------------|------------2-----------2---1---|
|----------------0---------------|2-------------------------------|
|0-------------------------------|--------------------------------|
|--------------------------------|----------------0---------------|

 |       |       |       |        
|--------------------------------|
|--------------------------------|
|2-------------------------------|
|--------------------------------|
|0-------------------------------|
|--------------------------------|

From: Samuel.Lumele (melesambo@hotmail.com)

     
Добавлено: 01.12.2013
Другие материалы по этой песне:

Страница создана 06.04.2012
http://primanota.ru/domenico-scarlatti/sonata-k322-chords.htm
Привет, Гость.
Предлагаем пройти революционный курс по гитаре.
Подарок от PrimaNota.Ru, забирай!