PrimaNota.ru - самый крупный в мире бесплатный архив песенных текстов, аккордов, табулатур и нот


Скарлатти Доменико - K333-sonata In D - таба, видео

Регистрация Запомнить меня
Войти через:  Facebook Google Twitter Vk Yandex Mail.ru

Скарлатти Доменико - K333-sonata In D - таба, видео

Печатать
Просмотров: 151
Standard tuning, the time signature is 4/4

|-------------------------2-------2-------5--------5-------3---2-|
|---------3-------3----------------------------------------------|
|----------------------------------------------------------------|
|--0-------------------------------------------------------------|
|----------------------------------------------------------------|
|----------------------------------------------------------------|

|--0-------------------------------------------------------------|
|------3---------------------------------------------------------|
|------------------------------------------------2-------2---0---|
|--------------0-------0-------4---------4-----------------------|
|----------------------------------------------------------------|
|----------------------------------------------------------------|

|----------------5---------3-------2---------------0-------------|
|------------------------------------------0---------------3---2-|
|------------------------------------------0---------------2-----|
|4---2---0-----------------2-------4---------------2-------------|
|----------------------------------------------------------------|
|----------------------------------------------------------------|

|--------------------5-------3-------2---------------0-----------|
|3-2---0-2---3-------------------------------0-----------------3-|
|--0-----------------------------------------0-----------------2-|
|------------4-------0-------2-------4---------------2-----------|
|----------------------------------------------------------------|
|----------------------------------------------------------------|

|----------------------------------------2-------2-------0-------|
|2-3---2-0---2-3---------------3---------------------------------|
|------0---------------2---------------------------------0-------|
|--------------4---------------------------------------------4---|
|----------------------------------------------------------------|
|----------------------------------------------------------------|

|------------------------------------------0-------0-------------|
|----------------------------------2-----------------------3-----|
|--------------------------0-------------------------------------|
|2---0-----------------------------------------------------4---2-|
|--------4---2---0-----------------------------------------------|
|----------------------------------------------------------------|

|------------------------------------2---------------------------|
|----------------------------3---------------3-----------------3-|
|----------------------------------------------------1-----------|
|--0---------0---2---4---------------4---------------------------|
|------4---------------------------------------------------------|
|----------------------------------------------------------------|

|------2-------------------------------0-------------------------|
|--------------3---------------2-----------------2---------------|
|------1---------------2---------------2-------------------------|
|----------------------------------------------------------------|
|--------------------------------------------------------4-------|
|----------------------------------------------------------------|

|--------0-------------------------2---0-------------------5---4-|
|2---------------2-------------------------3---2---0-------------|
|------------------------------------------------------2---------|
|------------------------0-----------------0---------------------|
|--------4-------------------------------------------------6-----|
|----------------------------------------------------------------|

|--2---0---------------------------------------------------------|
|----------4---2-----0---------------0-------3-------0-----------|
|------------------------2---1-------------------------------1---|
|----------------------------2---------------2---------------0---|
|----------6-----------------------------------------------------|
|----------------------------------------------------------------|

|--------------------------------------0-------------------------|
|------0-------3-------0-----------------------------------------|
|--------------------------------------------------------2-------|
|--------------0-------------------------------6-----------------|
|------------------------------4---------------4-----------------|
|----------------------------------------------------------------|

|--------7-------0---------------------------------4-------5-----|
|------------------------3-----------------2---2-----------------|
|------------------------------------------2---------------------|
|----------------------------------------------------------------|
|--------------------------------0-----------------0-------------|
|4---------------4-----------------------------------------------|

|------------------4---------5-----------------------4-------5---|
|----------2---2-----------------------------2---2---------------|
|----------2---------------------------------2-------------------|
|----------------------------------------------------------------|
|----------------------------------------------------------------|
|--4---------------4-----------------2---------------2-----------|

|----------------------4-------5-----------0---2-----------------|
|--------------2---2-------------------------------2---3---0-----|
|--------------2-------------------------------------------------|
|--------------------------------------0---------------0---------|
|----------------------------------------------------------------|
|----0-----------------0-----------------------------------------|

|0---------------------------------------------------------4-----|
|----3---2-------0-------2-0---2-0-----0-----------2---2---------|
|--------------------2---------------2-------------2-------------|
|----------------------------------------------------------------|
|----------------------------------------0-----------------0-----|
|--------0---------------0---------------------------------------|

|--5-----------------------4---------5-----------------------4---|
|------------------2---2-----------------------------2---2-------|
|------------------2---------------------------------2-----------|
|----------------------------------------------------------------|
|----------------------------------------------------------------|
|----------4---------------4-----------------2---------------2---|

|----5-------------------------4-------5-----------0---2---------|
|----------------------2---2-------------------------------2---3-|
|----------------------2-----------------------------------------|
|----------------------------------------------0---------------0-|
|----------------------------------------------------------------|
|------------0-----------------0---------------------------------|

|--------0-------------------------------------------------0-----|
|----0-------3---2-------0-------2-0---2-0-----0---------------3-|
|----------------------------2---------------2---2---------------|
|----------------------------------------------------------------|
|------------------------------------------------0---------------|
|----------------0---------------0-------------------------------|

|------------------2----------------------------------------0----|
|--2---0-------------------3-----------------2---0---2---------3-|
|----------2---1-------------------------------------------------|
|------------------0---------------------------------------------|
|--4-------------------------------------------------0-----------|
|----------------------------------0-----------------------------|

|--------------------------------------------------------------5-|
|----2---0---------------------0---------------------------------|
|------------2---1---------------------2-1---2-1-----1-2---------|
|--------------------4---------------------------4---------------|
|----4---------------5---------------------------------0---------|
|--------------------------------------0-------------------------|

|--4-----2---0---------------------------------------------------|
|----------------3---2---0---------------------------------------|
|----------------------------2---1-------------------------------|
|--------0---------------------------4---2---0-------------------|
|------------------------------------------------4---2-----0-----|
|------------------------0---------------0-----------------------|

|----------------------------------------------------------------|
|----------------------------------------------------------0-----|
|----------------------------------------------0-----2-----------|
|----------------------------0-----2-----4-----------------------|
|----------0-----2-----4-----------------------------------------|
|----------------------------------------------------------------|

|------------------------------------------0---2-----0-----------|
|------------------------0-----2-----3---------------------3-----|
|------------------2---------------------------------------------|
|------0-----2---------------------------------0-----------------|
|4-----------------0---------------------------------------------|
|------------------------------3-----2---------------3-----------|

|----------------------------------------------------------------|
|2-----3-----------------3-----------------3-----------------4---|
|------------------------5-----------------4-----------0-----2---|
|------0-----0-----2-----4-----2-----0-----5-----------------4---|
|0---------------------------------------------------------------|
|------------------------------------------------3---------------|

|--0-----------0---------------------------------0---------------|
|--------4-----------------------0-------------------------------|
|--------------0---------------------------------3---------------|
|--------------2-----------2-----0-----0---0---------------------|
|------------------------------------------------4-----4-----4---|
|--------------------0-------------------------------------------|

|--0-----------------2---0-------------------0-----2-----3-----0-|
|----------------------------3----2----3-------------------------|
|--0-------------------------------------------------------------|
|--------------------------------------------------0-----2-------|
|--2-----2-----2-----1-----------------2-----4-------------------|
|----------------------------------------------------------------|

|----------0-----------------------3-----0-----------------------|
|----3-----3-----2-----0---------------------------0-----------0-|
|----------0-----------------3---------------3-----0-----3-----0-|
|----------------------------4---------------------------4-------|
|----------------------------------------------------------------|
|----------------------------------------------------------------|

|----3-----0-----------------------------------------0-----2-----|
|----------------------0-----------0-----2-----3-----------------|
|----------------3-----0-----3-----0-----------------------------|
|----------------4-----------4-----------------------------4-----|
|----------------------------------------------------------------|
|----------------------------------------------------------------|

|3-----2-----0---------------------------------2-----------------|
|------------------3-----2-----0-----------0---------------------|
|------------------------------------3---------------2-----0-----|
|2-----0-----------------2-----------4-----1---------------2-----|
|------------4-----2---------------------------------------------|
|----------------------------------------------------------------|

|------------------2-----------------------------------0---------|
|----------------------------------------------------------------|
|------0-----------------2-----0-----------0-----2-----------0---|
|4-----2-----4-----------------2-----4-----2---------------------|
|6-----------6-----------------------6-----------4---------------|
|----------------------------------------------------------------|

|--------------------------0-------------------------------------|
|----------------------------------------------------------------|
|--------------------------------0-------------------------------|
|--4-----2-----4-----2-----------------4-----2---4-----2-----4---|
|--5-----4-----5-----4-----------------5-----4---5-----4---------|
|----------------------------------------------------------------|

|--------------------------------0-----2-----0-------------------|
|--------------0-----2-----3-----------------------------3-----2-|
|--0-----2-------------------------------------------------------|
|--------------------------------------0-------------------------|
|--2-----0-----------------------------------------0-----2-----0-|
|--------------------3-----2-----0-----------3-------------------|

|----5-----------------------------------5-----------------------|
|----------3-----2-----3-----2-----3---------3-----2-----3-----2-|
|----------------------------------------------------------------|
|----------------2-----4-----2-----4---------------2-----4-----2-|
|----------------0-----------------0---------------0-------------|
|----------------------------------------------------------------|

|----------2-----------------0-----------------0-----------------|
|----3-----------------------------------------------3-----0-----|
|----------------2-----0-----------0-----------------------------|
|----4-----------------2-----------------4-----------------------|
|----0-----------------0-----------------5-----------------------|
|----------------------------------------------------------3-----|

|5-----3-----2-----0-----------2-0---2-0-----0-------5-----------|
|------------------------3-----------------3---3-----------3-----|
|----------------------------------------------------------------|
|----------------------------------------------------------------|
|------------0-----------------0---------------0-----------------|
|----------------------------------------------------------------|

|------------------------5-----------------------------------2---|
|2-----3-----2-----3-----------3-----2-----3-----2-----3---------|
|----------------------------------------------------------------|
|2-----4-----2-----4-----------------2-----4-----2-----4---------|
|0-----------------0-----------------0-----------------0---------|
|----------------------------------------------------------------|

|--------------0-----------------0---------------5-----3-----2---|
|--------------------------------------3-----0-------------------|
|--2-----0-----------0-------------------------------------------|
|--------2-----------------4-------------------------------------|
|--------0-----------------5---------------------------------0---|
|--------------------------------------------3-------------------|

|--0-----------2---0-2---0-----0-------5-----2-------------------|
|--------3-----------------3-----3-----------------3-------------|
|--------------------------------------------------------2-----0-|
|--------------------------------0-------------------------------|
|--------------0-----------------------------------4-------------|
|----------------------------------------------------------------|

|----------5-----2-----------------------------------------------|
|----------------------3-----------------------3---2-----0-------|
|----------------------------2-----0---------------------------2-|
|----4-----------------------------------4-----------------------|
|----5-----------------4-----------------5-----------------------|
|--------------------------------------------------------3-------|

|----------------------------2---0-2---0-----0-2-----------------|
|----------------------------------------3-----------3-----2-----|
|----0-----------------------------------------------------------|
|----------4-----2-----0-----------------------0-----------------|
|----------0-----------------0-----------------------------------|
|----------------------------------------------------------------|

|--------------------------------------2---0---2---0-----0-------|
|0---------------------------------------------------3-------3---|
|------2-----0---------------------------------------------------|
|------------------4-------2-----0---------------------------0---|
|------------------0-------------------0-------------------------|
|3---------------------------------------------------------------|

Добавлено: 29.05.2012
Другие материалы по этой песне:
  • Аккорды и текст

Страница создана 29.05.2012
http://primanota.ru/domenico-scarlatti/k333-sonata-in-d-chords.htm
Привет, Гость.
Предлагаем пройти революционный курс по гитаре.
Подарок от PrimaNota.Ru, забирай!