PrimaNota.ru - самый крупный в мире бесплатный архив песенных текстов, аккордов, табулатур и нот


Скарлатти Доменико - K208-sonata In A - таба, видео

Регистрация Запомнить меня
Войти через:  Facebook Google Twitter Vk Yandex Mail.ru

Скарлатти Доменико - K208-sonata In A - таба, видео

Печатать
Просмотров: 231
Уроки эстрадного вокала в Санкт-Петербурге
Author: Domenico Scarlatti (1685 - 1757 Italy/Baroque)
   Transcribed by: Adam Guzowski (guitarra@poczta.fm)
             Date: 19-XI-2001
Other corrections: 22 XI 2001 (weed@wussu.com)

1) Guitar tuning: (standard) EAGDBE

2) General Info: This is one of my favorites but it's not for novices. 
                 If you want to play this well, listen to the MIDI or CD. 

3) Tabulature info: Timing : 4/4  Andante contabile
                    *** - play these notes very quickly


1
E||-------------2--0---------|-----2------0---0-----------|
B||--------2-------------3-2-|--0-----------3---3-2-0-----|
G||*--2----------------------|-------------------------2--|
D||*-------------------------|--0-----0-----0-------0-----|
A||---0----0----0-----0------|----------------------------|
E||--------------------------|----------------------------|


3                                            CVII........
-----0--------------------|----------------------7-------0---|
-----------2--------------|-----------------10-9--10-9-7---3-|
--1-----2-----1--2--------|----------4-6-7-6-----------------|
--0-----------------1--2--|--4-6-7-6---------9-------9-------|
--------4-----4-----4-----|--5-------5-------7-------7-------|
--------------------------|----------------------------------|


5
-------------------------0---|------------0-------------0---|
--2-0--------2-----4-------2-|----0-4-------2-----4-------2-|
------2----------------------|--3-------------1-2----2------|
----------------------2------|--2------2--------------------|
--0-------0-----0-----0------|------------------------------|
-----------------------------|--4------4------2------2------|


7   CII.........
------------5---0---2-0---------|-------------0------------0--|
------2-------2---4-----4-2-0---|----------------0-1----------|
----2----2------2-------2-----2-|--1--------------------2-----|
--2------2------1-------1-------|----4-2-------------2--------|
--------------------------------|----------2-----3------3-----|
--------------------------------|--0-------0------------------|


9                                           CII.............
------------0--0---------0--|------------0------4-2---------|
----0------------1----------|-----------------4-------4-----|
--0------0-----2------2-----|----6------------------4---4-2-|
------2--------2---4--2-----|--4---4--4-----4-------4-------|
---------------0------0-----|--7------7-----2-------2-------|
--3------3------------------|--6------6---------------------|


11                        ********
------0---------------------------|----------------------------------|
--------4---2-0-------------------|----0---------------2-0-----0---0-|
----1-----2-----2---1-----1-1-1---|------2-1---2-1-2-2-----3-----3---|
----------------------4-2--4-4-424|--2---------------1-------1-------|
--2-------0-------2-------2-------|--4-------4-----------------------|
--0-------------------------------|----------------------------------|


13CII.....             ********
--5-4-2-------0----------------|--------------------||
--------5-1-2------------------|--------------------||
--4-------2-------1----1-1-1--4|-------------------*||
--2-------------2-2----14-4-42-|--2----------------*||
----------0-------2----2-------|--------------------||
-------------------------------|--0-----------------||


15          ************                      CIV...........
-----------------------------|-----7----5-4-------4-----------|
-------0----202020202020-2-3-|--0-----0-----7---6-------------|
------------0----------------|----------------4-----7-4-6-6-0-|
--------------------2--------|--0-----0-----------------------|
--2--------------------------|----------------4-------4-------|
-----------------------------|--------------------------------|


17
--------0-3-----0-3-----0-3-----0-|--3-----0-3-1-1-0---------1-0-0---|
------2-------2-------2-------2---|------2-----------3-----3-------3-|
--0-3-----0-0-----0-0-----0-0-----|--0-0-----0-------2---2---2-------|
----------------------------------|------------------3-3-------------|
--4-------4-------2-------2-------|--0-------0-------0-------0-------|
----------------------------------|----------------------------------|


19
----------1-0-0-------0-3---1-1-0-|--4-5-1-----------4-5---------0---|
------0-3-------3---2-------------|--------3---1-1-0-0---0---0-4-----|
--1-------1-------0-------0-------|--2-------2-------------5-------2-|
----3-----------------------------|--0-------0-------7-------7-------|
--2-------2-------4-------4-------|------------------6-------6-------|
----------------------------------|----------------------------------|


21                                                            CVII....
--------------------------------0-|--------0-0-1-1-2-10-9-7-----7-----|
----------0-2-2-3---0-2-3-3-4-4---|----2-3-----------------10-7---9---|
------1-2---------2-------2-------|--2-------2----------------7---7---|
----4-----------------------------|--0-------0-------0--------0-------|
--2-------2-------0-------0-------|-----------------------------------|
--0-------0-----------------------|-----------------------------------|


23    *************
--------------------0-------------|----2-0-----0---0--10-9-------7-5-|
----------202020------3-2---3-2-3-|--------4-----4--------10-6-7-----|
--2---4212------212---------------|----------------------------------|
----------------------------------|--------------------------0-------|
--4-------2-------0-------0-------|--2-------2-------0---------------|
--0-------0-------2-------2-------|--4-------4-----------------------|


25   ********  *******
----------------------------------||
----------202--02020-0------------||
--2--42124----------2---2---------||
----------------------------------||
--4-------2-------------0---------||
--0-------0-----------------------||

Добавлено: 05.03.2012
Другие материалы по этой песне:
  • Аккорды и текст

Страница создана 05.03.2012
http://primanota.ru/domenico-scarlatti/k208-sonata-in-a-chords.htm
Привет, Гость.
Предлагаем пройти революционный курс по гитаре.
Подарок от PrimaNota.Ru, забирай!