PrimaNota.ru - самый крупный в мире бесплатный архив песенных текстов, аккордов, табулатур и нот


Скарлатти Доменико - K159-sonata In C - таба, видео

Регистрация Запомнить меня
Войти через:  Facebook Google Twitter Vk Yandex Mail.ru

Скарлатти Доменико - K159-sonata In C - таба, видео

Печатать
Просмотров: 195
Domenico Scarlatti : Sonata in C Major, K.159  (transcribed to D Major)

Transcribed using a score for harpsichord and a John Williams CD.
He clearly has many more fingers than I do, so the twiddly bits may 
not be correct.

Gareth Taylor  

last updated 31 March 2006


   .  .      |  .  .  |  .  .    |  .  .  |  .  .    |  .  .  |  .  .     
e|-------||--------------------|-------------------|-------------------|
B|-10-8--||--7--7--------------|-7~----------10-8--|-7--7--------------|
G|-11-9--||*-7--7--9--7--7--9--|-7-----9--9--11-9--|-7--7--9--7--7--9--|
D|-------||*-------7--------7--|-------7--7--------|-------7--------7--|
A|-------||-----------9--9-----|-------------------|----------9--9-----|
E|-------||--------------------|-------------------|-------------------|

   |  .  .  |  .  .    |  .  .  |  .  .    |  .  .  |  .  .   
e|-------------------|-------------------|-------------------|
B|-7~----------10-7--|-7~----------10----|-------------10-7--|
G|-7-----9--9-----7--|-------9--------7--|-7~----6--7-----7--|
D|-------7--7--------|-11----11-9-----9--|-7-----7-----------|
A|-------------------|-------------------|-------------------|
E|-------------------|-------------------|-------------------|

   |  .  .  |  .  .    |  .  .  |  .  .    |     .     .    |  .  .   
e|-------------------|-------------12----|---------------------------|
B|-7~----------------|----------------10-|-12-10-12-10-9-------10----|
G|----9--9--9~-7--7--|-7~-6--6-----------|------------------------11-|
D|-11----11-9-----9--|-7-----7--------12-|-------------11---------9--|
A|-------------------|----------9--------|---------------------------|
E|-------------------|-------------------|-12---------------10-------|

   |   .   .   |  .  .     |   .   .   |   .   .    |   .   .   |   .   .   
e|----------------12-----|-7p5---------5p4--------|-4p2---------2p0--------|
B|-9-7-9-7-----------10--|-----9---9-------7---7--|-----5---5-------3---3--|
G|---------9-------------|---------6-----------4--|---------2-----------1--|
D|---------7---------12--|------------------------|------------------------|
A|-------------9---------|-7-----------5----------|-4-----------2----------|
E|-9---------------------|------------------------|------------------------|

   |  .  .  |  .  .    |  .  .  |  .  .    |  .  .  |  .  .   
e|-------------------|-------5-----------|-------5-----------|
B|-2--3--5--3--2--0--|-2-----------0--3--|-2-----------0--3--|
G|-2--4--6--4--2--1--|-2-----------1-----|-2-----------1-----|
D|----------0-----2--|----2--------------|----2--------------|
A|-0-----4-----------|-------0-----------|-------0-----------|
E|-------------------|----------0--------|----------0--------|

   |  .  .  |  .  .    |  .  .  |  .  .    |  .  .  |  .  .   
e|-------------------|-------5-----------|-------9-----------|
B|-2--3--5--3--2--0--|-2-----------0--3--|-2-----------0--3--|
G|-2--4--6--4--2--1--|-2-----------1-----|-2-----------1-----|
D|----------0-----2--|----2--------------|----2--------------|
A|-0-----4-----------|-------0-----------|-------0-----------|
E|-------------------|----------0--------|----------0--------|

   |  .  .  |  .  .    |  .  .  |  .  .    |  .  .  |  .  .   
e|-------12----------|-------------------|-------------------|
B|-2-----------0--3--|-2--3--5--3--2--0--|-5--3--2--3--2--0--|
G|-2-----------1-----|-2--4--6--4--2--1--|-6--4--2--4--2--1--|
D|----2--------------|----------0-----2--|-------4--0-----2--|
A|-------0-----------|-0-----4-----------|-4-----------------|
E|----------0--------|-------------------|-------------------|

   |  .  .  |  .  .    |  .  .  |  .  .    |  .  .  |  .  .   
e|-------------------|-------------------|----0--------------|
B|-5--3--2--3--2--0--|-5--3--2-----------|-------2-----------|
G|-6--4--2--4--2--1--|-6--4--2--4642--1--|-2--------2--------|
D|-------4--0-----2--|-------4--0-----2--|-2-----------2-----|
A|-4-----------------|-4-----------------|-0--------------4--|
E|-------------------|-------------------|-------------------|

  1..................  2...................
   |  .  .  |  .  .     |  .  .  |  .  .     |     .   .   |     .   .    
e|-------------------||--------------------|-----------------------------|
B|-------------10-8--||-------------10-----|-----------------------------|
G|-------------11-9-*||----------------10--|-1012109---9---9-109-7---7---|
D|------------------*||----------------12--|-11--------11--9---------9---|
A|-0-----------------||-0------------------|-----------------------------|
E|-------------------||--------------------|-----------------------------|

   |   .   .   |   .   .     |      .    .    |     .    .    
e|-------------------------|---------------------------------|
B|-----------------10------|---------------------------------|
G|-797-6---6---7-------10--|-101210-9----9----9-109-7----7---|
D|-7-------7---7-------12--|-11----------11---9----------9---|
A|-------------------------|---------------------------------|
E|-------------------------|---------------------------------|

   |   .   .   |   .   .     |  .  .  |  .  .    |  .  .  |  .  .   
e|-----------------10--6---|-6--5--5-----------|-------------10-6--|
B|-------------------------|----------10-8--8--|-8--7--7-----------|
G|-797-6---6---7-------7---|-7-----7--8-----8--|----------7--------|
D|-7-------7---8-------8---|-7-----7-----------|-7-----7--8--------|
A|-------------------------|----------10----10-|-5-----5-----------|
E|-------------------------|-------------------|-------------------|

   |  .  .  |  .  .    |  .  .  |  .  .    |  .  .  |  .  .   
e|-6--5--5-----------|-------------5--5--|-5--8--6-----------|
B|----------10-8--8--|-8--7--7-----------|-------------8--8--|
G|-7-----7--8-----8--|----------7--------|-7-----7-----------|
D|-7-----7-----------|-7-----7--7--------|-8-----8--9-----9--|
A|----------10----10-|-5-----5-----------|----------10----10-|
E|-------------------|-------------------|-------------------|

   |  .  .  |  .  .    |  .  .  |  .  .    |  .  .  |  .  .   
e|-------------------|----5--------------|-------------------|
B|-9--11-10----------|-7-----8-----------|----10-------10----|
G|-------------10-10-|-------------9--9--|-10----10-9-----9--|
D|-7-----7-----------|-5-----5-----------|-------------------|
A|-8-----8---8----8--|-7-----7--7-----7--|-8-----8--7-----7--|
E|-----------10---10-|----------9-----9--|-10----10-8-----8--|

   |  .  .  |  .  .    |  .  .  |  .  .    |  .  .  |  .  .   
e|-------------------|-5-----------------|-5-----------------|
B|----------8--------|-5--6--5--8--------|-5--6--5--8--------|
G|-7--6--7--7--6--7--|----------7--6--7--|----------7--6--7--|
D|-7-----7--0-----0--|----------0-----0--|----------0-----0--|
A|-------------------|-------------------|-------------------|
E|-6-----6--6-----6--|-5--------6-----6--|-5--------6-----6--|

  |--------severalteenths---------|  .  .    |  .  .  |  .  .    
e---5---------------------------------------|-------------------|
B-5---8-7-5---------------------------10-8--|-7--7--------------|
G-----------7-6-4---------------------11-9--|-7--7--9--7--7--9--|
D-----------------7-5-3---------------------|-------7--------7--|
A-----------------------7-5-3---------------|----------9--9-----|
E-5---------------------------7-545---------|-------------------|

   |   .   .   |   .   .    |  .  .  |  .  .    |   .   .   |   .   .   
e|------------------------|-------------------|-----------------10--7--|
B|-8-7-8-7---------10--8--|-7--7--------------|-8-7-8-7----------------|
G|-7-------9---9---11--9--|-7--7--9--7--7--9--|-7-------9---9----------|
D|---------7---7----------|-------7--------7--|---------7---7----------|
A|------------------------|----------9--9-----|------------------------|
E|------------------------|-------------------|------------------------|

   |   .   .    |    .    .    |    .    .   |   .   .    |  .  .   |  .  .   
e|-9-7-9-7-----------10------|-------------------10--7--|-9p7-------7p5------|
B|---------10-------------8--|-10-8-10-8-7--------------|----10-10-----8--8--|
G|---------7----6---------6--|-7---------7---7----------|-------7---------6--|
D|---------------------------|-0---------0---5----------|--------------------|
A|-9-------9----7---------7--|--------------------------|-9-----9---7-----7--|
E|---------------------------|--------------------------|--------------------|

   |   .  .  |   .   .     |  .  .  |  .  .    |  .  .  |  .  .   
e|-5p3-----------0---0---|-------10-------0--|-------10----------|
B|-----7--7--8p7---------|----------7--8-----|----------------8--|
G|-----------6-------6---|-7--------7-----6--|-7--7--------6-----|
D|-0------7--7-------7---|-9--7-----7-----7--|-------7-----7-----|
A|--------5--------------|-------10----------|----------0--------|
E|-----------------------|-------------------|-------------------|

   |  .  .  |  .  .    |  .  .  |  .  .   
e|-------10----------|-------------------|
B|-7--------------8--|-7--8--10-8--7--5--|
G|-7--7--------6-----|-7--9--11-9--7--6--|
D|-------7-----7-----|-0--------------7--|
A|----------0--------|-------9--10-------|
E|-------------------|-------------------|

   |  .  .  |  .  .    |  .  .  |  .  .    |  .  .  |  .  .   
e|-------10----------|-------14----------|-------17----------|
B|-7--------------8--|-7--------------8--|-7--------------8--|
G|-7--7--------6-----|-7--7--------6-----|-7--7--------6-----|
D|-------7-----7-----|-------0-----7-----|-------0-----7-----|
A|----------0--------|----------0--------|----------0--------|
E|-------------------|-------------------|-------------------|

   |  .  .  |  .  .    |  .  .  |  .  .    |  .  .  |  .  .    
e|-------------------|-------------------|-------------------|
B|-7--8--10-8--7--5--|-10-8--7--8--7--5--|-10-8--7--8--7--5--|
G|-7--9--11-9--7--6--|-11-9--7--9--7--6--|-11-9--7--9--7--6--|
D|-0--------------7--|-------9--------7--|-------9--------7--|
A|-------9--10-------|-9--------10-------|-9--------10-------|
E|-------------------|-------------------|-------------------|

   |  .  .  |    .  .    |        
e|--------------------|---------||
B|-10-8--7------------|---------||
G|-11-9--7--9~--7--6--|-7-------||
D|-------9---------7--|-0-------||
A|-9--------10--------|---------||
E|--------------------|---------||

Добавлено: 12.05.2012
Другие материалы по этой песне:
  • Аккорды и текст

Страница создана 12.05.2012
http://primanota.ru/domenico-scarlatti/k159-sonata-in-c-chords.htm
Привет, Гость.
Предлагаем пройти революционный курс по гитаре.
Подарок от PrimaNota.Ru, забирай!