PrimaNota.ru - самый крупный в мире бесплатный архив песенных текстов, аккордов, табулатур и нот


Дельфин - Июнь - аккорды и текст, видео

Регистрация Запомнить меня
Войти через:  Facebook Google Twitter Vk Yandex Mail.ru

Дельфин - Июнь - аккорды и текст, видео

Печатать
Просмотров: 464
Июнь
Дельфин
                           {BASS}

Tuning - E,A,D,G
 
                    #####INTRO##### X 2
BASS 1
----------|
|12-12-12-12-1212|14-14-14-14-1414|
----------|
----------|

----------|
|10-10-10-10-1010|10-10-10-10-1010|
----------|
----------| 

----------| 
|12-12-12-12-1212|10-10-10-10-1010|
----------|
----------|

----------|
|12-12-12-12-1212|12-12-12-12-1212|
----------|
----------|  
  
BASS 2
|--------|--------|------|-----|
|12--12--|14--14--|10----|-----|
|--------|--------|------|-----|
|--------|--------|------|-----| 

|----------14---|-----|----|
|10/12--12---|14--14--14h15|7----|----|
----|-----|----|
----|-----|----|

                     #####VEARSE 1##### X2
BASS 1
|--------|--------|------|-----|
|12--12--|14--14--|10----|-----|
|--------|--------|------|-----|
|--------|--------|------|-----| 

|----------14---|-----|----|
|10/12--12---|14--14--14h15|7----|----|
----|-----|----|
----|-----|----|

Ты знаешь, я тоже устал и тоже сбился с пути.
Я тоже все потерял, не успев ничего найти.
И в крошечном сердце моем давно поселился страх,
Если бы он был огнем, то я бы рассыпался в прах.

Бессмысленность прожитых дней, безрадостность сделанных дел.
Казалось, что я сильней и что далеко предел.
Я тоже чертил черту, пытаясь шагнуть за край,
Но знаешь, я не могу, когда в глаза мои смотрит май.

                     #####CHORUS 1##### X 2
BASS 1
|-----|-10----14-|-14-10--|12p10--------------|
|-----|----------|-0------|-----12-10-12-10/12|
|-8---|-10------------|
|-----|---------------| 

Все может быть без меня,
Мой май, боль моя.

                    #####BRIDGE 1##### X 2
BASS 1
|-----|-10----14-|-14-10--|12p10--------------|
|-----|----------|-0------|-----12-10-12-10/12|
|-8---|-10------------|
|-----|---------------| 

BASS 2
|-19---|---21-21|21--17-17-17--14-14|
|-----------|
|-----------|
|-----------|

|14--10-10-10--12-10-12-|-/14-|
------------|-----|
------------|-----|
------------|-----|
 
                     #####VEARSE 2##### X 2
BASS 1 X 2
|19-19-19-19-1919|21-21-21-21-2121|
----------|
----------|
----------|

----------------------| 
|10-10-10-10-1010|10-10-10-10-1010|
----------| 
----------|

|19-19-19-19-1919|17-17-17-17-1717|
----------|
----------|
----------|

----------| 
|12-12-12-12-1212|12-12-12-12-1212|
----------|
----------|

BASS 2 X 1
|--------|--------|------|-----|
|12--12--|14--14--|10----|-----|
|--------|--------|------|-----|
|--------|--------|------|-----| 

|----------14---|-----|----|
|10/12--12---|14--14--14h15|7----|----|
----|-----|----|
----|-----|----|


Ты знаешь, я верил словам, я верил в их силу и страсть.
Они рвали меня пополам и не давали упасть.
Только слова как дым, тающий высоко.
А тем, кто их говорил, в общем-то, все равно.

Ты знаешь, я верил себе, пытаясь найти покой.
Как будто бы обо мне заботился кто-то другой.
Но все приходило к нулю, и я начинал себе врать.
Лишь те, кого я люблю, меня могли удержать.

                      ##### CHORUS 2##### X 4

BASS 1
|-----|-10----14-|-14-10--|12p10--------------|
|-----|----------|-0------|-----12-10-12-10/12|
|-8---|-10------------|
|-----|---------------| 
BASS 2
|--10------------|--10---12-12/14|--10-----------|
|12--12--10-10/12|12--12---------|12--12-10-10/12|
-------------|
-------------|

Все может быть без меня,
Мой май, боль моя.

                      #####BRIDGE 2##### X 1
BASS 1
|17----|----10-12|12-14-|---|17--14-|21--17-|----|-7-9|
|------|---------|------|---|-------|-------|----|----|
|------|---------|------|---|-------|-------|----|----|
|------|---------|------|---|-------|-------|----|----|

|17----|14---17--|21-22-|---|21--17-|-19--14|----|----|
|------|---------|------|---|-------|-------|----|----|
|------|---------|------|---|-------|-------|----|----|
|------|---------|------|---|-------|-------|----|----|

BASS 2
|--------|--------|------|-----|
|12--12--|14--14--|10----|-----|
|--------|--------|------|-----|
|--------|--------|------|-----| 

|----------14---|----------|---------|
|10/12--12---|14--14--14h15|7-------77|--------7|
----|5-5-5-5---|5-5-5-5--|
----|----------|---------|

|--------|---------|
|12--12--|14--14--|10------1010|-------1010|
|--------|--------|8-8-8-8-----|8-8-8-8----|
|--------|---------| 

|----------14---|----------|---------|
|10/12--12---|14--14--14h15|7-------77|--------7|
----|5-5-5-5---|5-5-5-5--|
----|----------|---------| 

                   #####VEARSE 3##### X 1
BASS 1
|19-19-19-19-1919|21-21-21-21-2121|
----------|
----------|
----------|

----------------------| 
|10-10-10-10-1010|10-10-10-10-1010|
----------|
----------|

|19-19-19-19-1919|17-17-17-17-1717|
----------|
----------|
----------|

----------| 
|12-12-12-12-1212|12--------------|
----------|
----------|

Ты знаешь, трудно любить, проще всего ненавидеть.
Жаль только, что приходиться тем, кем хотят тебя видеть.
Жаль только, что надо питать силой своей чужие надежды.
И постараться не заблевать светлого чувства скупые одежды.

                      ##### CHORUS 3##### X 4

BASS 1
|-----|-10----14-|-14-10--|12p10--------------|
|-----|----------|-0------|-----12-10-12-10/12|
|-8---|-10------------|
|-----|---------------| 
BASS 2
|--10------------|--10---12-12/14|--10-----------|
|12--12--10-10/12|12--12---------|12--12-10-10/12|
-------------|
-------------|
BASS 3
|-19---|---21-21|21--17-17-17--14-14|
|-----------|
|-----------|
|-----------|

|14--10-10-10--12-10-12-|-/14-|
------------|-----|
------------|-----|
------------|-----|

|------|---21-21|21--17-17-17--14-14|
|-----------|
|-----------|
|-----------|

|14--10-10-10--12-10-12-|
------------|
------------|
------------|

Все может быть без меня,
Мой май, боль моя.
                     ##### OUTRO ##### X 1

|14-17-14-17-19-|---21-21|21--17-17-17--14-14|
---------|
---------|
---------|

|14--10-10-10--12-10-12-|-/14-|
------------|-----|
------------|-----|
------------|-----|

|------|---21-21|21--17-17-17--14-14|
|-----------|
|-----------|
|-----------|

|14--10-10-10--12-10-12-|14-17-14-17-19~~~|
------------------|
------------------|
------------------|

BASS 1
|-----|-10----14-|-14-10--|12p10--------------|
|-----|----------|-0------|-----12-10-12-10/12|
|-8---|-10------------| X2
|-----|---------------|


BASS 2
|--10------------|--10---12-12/14|--10-----------|
|12--12--10-10/12|12--12---------|12--12-10-10/12|
-------------| X2
-------------|
Добавлено: 11.06.2012
Другие материалы по этой песне:

Страница создана 14.03.2012
http://primanota.ru/dolphin/iyun-chords.htm
Привет, Гость.
Предлагаем пройти революционный курс по гитаре.
Подарок от PrimaNota.Ru, забирай!