PrimaNota.ru - самый крупный в мире бесплатный архив песенных текстов, аккордов, табулатур и нот


Dolorian - My Weary Eyes - текст песни, таба, видео

Регистрация Запомнить меня
Войти через:  Facebook Google Twitter Vk Yandex Mail.ru

Dolorian - My Weary Eyes - текст песни, таба, видео

Печатать
Просмотров: 133
Band: Dolorian http://www.helixes.org/dolorian/
Song: My Weary Eyes
Album: When The Laughter Stops
Tuning: D Standard

Tabbed by: aleksward@live.com
youtube.com/crystalred333
soundcloud.com/hesychasmsa

Structure at the bottom

Part A
  1  +  2  +  3  +  4  +  5  +  6  +
d------------------------------------|
A-------------------0----------------|
F-------------------------3----------|
C------------------------------------|
G-6-----------6-----------------6----|
D-4-----------4-----------------4----| x4

  1  +  2  +  3  +  4  +  5  +  6  +
d------------------------------------|
A-------------------------0----------|
F-------------------3-------3p2p0----|
C------------------------------------|
G-2-----------2-----------------2----|
D-0-----------0-----------------0----| x4


Part B
  1  +  2  +  3  +  4  +  5  +  6  +   1  +  2  +  3  +  4  +  5  +  6  +
d------------------------------------|------------------------------------|
A------------------------------------|-------0-----------0----------------|
F------------------------------------|-3-----------3----------------------|
C------------------------------------|------------------------------------|
G------------------------------------|------------------------------------|
D------------------------------------|------------------------------------| x2

  1  +  2  +  3  +  4  +  5  +  6  +   1  +  2  +  3  +  4  +  5  +  6  +
d------------------------------------|------------------------------------|
A------------------------------------|-------------0----------------------|
F------------------------------------|-------0-----------0----------------|
C------------------------------------|-6----------------------------------|
G------------------------------------|------------------------------------|
D------------------------------------|------------------------------------| x2


Part C
  1  +  2  +  3  +  4  +  5  +  6  +   1  +  2  +  3  +  4  +  5  +  6  +
d------------------------------------|-0----------------------------------|
A-------------------------0----------|-------------0-----------0----------|
F-------------------------------0----|-------------------0-----------0----|
C-2-----------------2----------------|------------------------------------|
G------------------------------------|------------------------------------|
D------------------------------------|------------------------------------|


Part D
  1  +  2  +  3  +  4  +  5  +  6  +   1  +  2  +  3  +  4  +  5  +  6  +
d------------------------------------|------------------------------------|
A------------------------------------|------------------------------------|
F------------------------------------|------------------------------------|
C------------------------------------|------------------------------------|
G------------------------------------|------------------------------------|
D------------------------------------|------------------------------------|

  1  +  2  +  3  +  4  +  5  +  6  +   1  +  2  +  3  +  4  +  5  +  6  +
d------------------------------------|------------------------------------|
A------------------------------------|-------------------0----------------|
F-------------------3----------------|-------------------------3----------|
C------------------------------------|------------------------------------|
G------------------------------------|------------------------------------|
D------------------------------------|------------------------------------|

Part E
  1  +  2  +  3  +  4  +  5  +  6  +   1  +  2  +  3  +  4  +  5  +  6  +
d------------------------------------|------------------------------------|
A-5----------------------------------|-------------7-----8--------7--5----|
F------------------------------------|------------------------------------|
C------------------------------------|------------------------------------|
G------------------------------------|------------------------------------|
D------------------------------------|------------------------------------|

  1  +  2  +  3  +  4  +  5  +  6  +   1  +  2  +  3  +  4  +  5  +  6  +
d------------------------------------|------------------------------------|
A-4----------------------------------|-4-----------------0----------------|
F-------------------3----------------|-------------------------3----------|
C------------------------------------|------------------------------------|
G------------------------------------|------------------------------------|
D------------------------------------|------------------------------------|


End
  1  +  2  +  3  +  4  +  5  +  6  +   1  +  2  +  3  +  4  +  5  +  6  +
d------------------------------------|------------------------------------|
A------------------------------------|------------------------------------|
F------------------------------------|------------------------------------|
C------------------------------------|------------------------------------|
G-6----------------------------------|------------------------------------|
D-4----------------------------------|------------------------------------|

Structure

Part A x3       0:00-0:48
Part B x4       0:48-1:54
2 bar break     1:54-2:02
Part C x8       2:02-2:34
Part A x4       2:34-3:39
Part B x3       3:39-4:30
Break           4:30-4:41
Part D x2       4:41-5:09
Part E x6       5:09-6:33
Part C x2       6:33-7:06
Part A x4       7:06-8:13
End
Добавлено: 18.08.2013
Другие материалы по этой песне:
  • Аккорды и текст

Страница создана 16.05.2012
http://primanota.ru/dolorian/my-weary-eyes-chords.htm
Привет, Гость.
Предлагаем пройти революционный курс по гитаре.
Подарок от PrimaNota.Ru, забирай!