PrimaNota.ru - самый крупный в мире бесплатный архив песенных текстов, аккордов, табулатур и нот


Dollybraid - San Pedro - таба, видео

Регистрация Запомнить меня
Войти через:  Facebook Google Twitter Vk Yandex Mail.ru

Dollybraid - San Pedro - таба, видео

Печатать
Просмотров: 131
San Pedro- Dollybraid
~~~~~~~~~~

Transcribed by Robert Smith RobertJSmith24@hotmail.com>

This is a great song by a Dallas band, Dollybraid. VERY hard solo to =
tab, especailly
with an acoustic guitar. I was able to get the first minute and a half =
of this 11
minute song... Additions/corrections welcome.=20

Solo: [Capo 2]

10:25

{r} =3D Let Ring

  00:22       00:37
e|-----0--------------------------------|-----0--------------------------=
B|-2p3---0--0p2-0-----------------------|-2p3---0--0p2-0-----------------=
G|-----------------2---2----------------|-----------------2---2----------=
D|--------------------4---4------4--2---|--------------------4---4----4--2
A|--------------------------------------|--------------------------------=
E|--------------------------------------|--------------------------------=

  00:47        [fast]
e|-----0---------------------------2p5--2-0---------|
B|-2p3---0--0p2-0---------------2p5--------2p5-5----|
G|-----------------2---2-----2p4--------------------|
D|--------------------4---4-------------------------|
A|--------------------------------------------------|
E|--------------------------------------------------|

  00:56
e|-2--0-----9p10-12--7--7p9-7-5--2--5---2-0---0-----|
B|--------------------------------------------------|
G|--------------------------------------------------|
D|--------------------------------------------------|
A|--------------------------------------------------|
E|--------------------------------------------------|

  01:09
e|-0{r}----------0-0-0p2-2-0{r}---------------------|
B|------2{r}-2--2-----------------------------------|
G|--------------------------------------------------|
D|--------------------------------------------------|
A|--------------------------------------------------|
E|--------------------------------------------------|

  01:20
e|-0{r}----------0-0-0p2-2-0-----0--0--0------------|
B|------2{r}-2--2-----------------------------------|
G|--------------------------------------------------|
D|--------------------------------------------------|
A|--------------------------------------------------|
E|--------------------------------------------------|


e|-0-0p2--------------------------------------------|
B|-------2------------------2/0---------------------|
G|----------4/2------46ph4------2-4-2---------------|
D|---------------4p7--------------------------------|
A|--------------------------------------------------|
E|--------------------------------------------------|

     
Добавлено: 20.08.2013
Другие материалы по этой песне:
  • Аккорды и текст

Страница создана 20.08.2013
http://primanota.ru/dollybraid/san-pedro-chords.htm
Привет, Гость.
Предлагаем пройти революционный курс по гитаре.
Подарок от PrimaNota.Ru, забирай!