PrimaNota.ru - самый крупный в мире бесплатный архив песенных текстов, аккордов, табулатур и нот


Dolly - Raddish Chocolate - бас-таба, видео

Регистрация Запомнить меня
Войти через:  Facebook Google Twitter Vk Yandex Mail.ru

Dolly - Raddish Chocolate - бас-таба, видео

Печатать
Просмотров: 142
Dolly - Raddich Chocolate

Tabbed By:xXナイトメアXx

I don't know if it's right but this the best I got so far!!!
^___________________^;;


>=Slide Up


Intro:
G|-----05---7777-3333-2222-0000---------|    
D|--------------------------------------| x2
A|--------------------------------------|
E|--------------------------------------|


Whole Song:
G|---------7777-3333-0035-323-----------|
D|--------------------------------------|
A|--------------------------------------|
E|--------------------------------------|


Chorus:
G|------------0-367-7777632-------------|
D|--------------------------------------|
A|--------------------------------------|
E|--------------------------------------|

G|--------0-367-777763>>>>>>>>12--------|
D|--------------------------------------|
A|--------------------------------------|
E|--------------------------------------|

G|------------0-367-7777632-------------|
D|--------------------------------------|
A|--------------------------------------|
E|--------------------------------------|

G|------------00000000-3332-------------|
D|--------------------------------------|
A|--------------------------------------|
E|--------------------------------------|


Ending:
G|--------------25-7-6-7----------------|
D|--------------------------------------|
A|--------------------------------------|
E|--------------------------------------|

G|---------------25-6-7-----------------|
D|--------------------------------------|
A|--------------------------------------|
E|--------------------------------------|

G|--------00-22-33-55-7-6--------------7|
D|--------------------------------------|
A|--------------------------------------|
E|--------------------------------------|
Добавлено: 23.06.2012
Другие материалы по этой песне:
  • Аккорды и текст

Страница создана 23.06.2012
http://primanota.ru/dolly/raddish-chocolate-chords.htm
Привет, Гость.
Предлагаем пройти революционный курс по гитаре.
Подарок от PrimaNota.Ru, забирай!