PrimaNota.ru - самый крупный в мире бесплатный архив песенных текстов, аккордов, табулатур и нот


Dolly - Fin Depoque - аккорды и текст, видео

Регистрация Запомнить меня
Войти через:  Facebook Google Twitter Vk Yandex Mail.ru

Dolly - Fin Depoque - аккорды и текст, видео

Печатать
Просмотров: 124
Уроки эстрадного вокала в Санкт-Петербурге
Авторы музыки: Thierry Lacroix, Emmanuelle Monet
Авторы текста: David Salsedo
Fin Depoque
Dolly
DOLLY
FIN D'EPOQUE
FROM THE ALBUM DOLLY
1997
--------------------
Tabbed by AAuuddee@aol.com


VERSE1:

  E5  D5
---------
---------
------7-- repeat
--2---7--
--2---5--
--0------


BRIDGE:

  G5  A5  B5          G5  A5
-----------------------------
-----------------------------
-------------repeat----------
--5---7---9-----------5---7--
--5---7---9-----------5---7--
--3---5---7-----------3---5--


VERSE2: same as verse1


CHORUS:

Guitar1:
  B   G   A=20
-------------
-------------
--8---4---6-- repeat
--9---5---7--
--9---5---7--
--7---3---5--

Guitar2:
  B                                 G
------------------------------------------------------
-----------------------------------------3-------3----
-------8-------8------8-------8--------4---4---4---4--
-----9---9---9---9--9---9---9---9---5--------5--------
--9--------9-------9------9---------5-----------------
--7---------------------------------3-----------------

  A
-------------------
-------------------
------6-------6----
----7---7---7---7--repeat
--7-------7--------
--5----------------


BRIDGE


VERSE3: same as other verses


BRIDGE


CHORUS


BRIDGE until the end



To see a list of my tabs,go to my website:
www.multimania.com/aauuddee
     
Добавлено: 22.08.2013
Другие материалы по этой песне:

Страница создана 13.06.2012
http://primanota.ru/dolly/fin-depoque-chords.htm
Привет, Гость.
Предлагаем пройти революционный курс по гитаре.
Подарок от PrimaNota.Ru, забирай!