PrimaNota.ru - самый крупный в мире бесплатный архив песенных текстов, аккордов, табулатур и нот


Dolly Mixture - How Come Youre Such A Hit With The Boys Jane - бас-таба, видео

Регистрация Запомнить меня
Войти через:  Facebook Google Twitter Vk Yandex Mail.ru

Dolly Mixture - How Come Youre Such A Hit With The Boys Jane - бас-таба, видео

Печатать
Просмотров: 111
-------------------------------------------------------------------------------
        HOW COME YOU'RE SUCH A HIT WITH THE BOYS, JANE? - Dolly Mixture
-------------------------------------------------------------------------------
Tabbed by: SPLAM!
Bassist: Debsey Wykes
Tuning: EADG

Verse 1
  1 + 2 + 3 + 4 +  1 + 2 + 3 + 4 +  1 + 2 + 3 + 4 +  1 + 2 + 3 + 4 +
G|----------------|----------------|----------------|----------------|
D|----7-----------|----------------|----7-----------|----------------|
A|5-----5-7-------|--------------4-|5-5---5-7-------|----------------|
E|------------5---|3.----5---5-7---|------------5---|3.----5---5-5-5-|

Prechorus
  1 + 2 + 3 + 4 +  1 + 2 + 3 + 4 +  1 + 2 + 3 + 4 +  1 + 2 + 3 + 4 +
G|----------------|----------------|----------------|----------------|
D|----------------|----------------|----------------|----------------|
A|----2-----------|--2-------------|----2-----------|--------------4-|
E|3-----3-5---5-5-|3---3-5---5-5-5-|3-----3-3---3-3-|5-5-5-5-5-5-7---|

Prechorus cont.
  1 + 2 + 3 + 4 +  1 + 2 + 3 + 4 +  1 + 2 + 3 + 4 +  1 + 2 + 3 + 4 +  1 + 2 + 3 + 4 +
G|----------------|----------------|----------------|----------------|----------------|
D|------4-5---5-5-|R---4-5-7-7-7-7-|------4-5---5-7-|L-7-7-7-7-7-7-7-|7-R-------------|
A|5---7-----------|--7-------------|5---7-----------|----------------|----------------|
E|----------------|----------------|----------------|----------------|----------------|

Chorus
  1 + 2 + 3 + 4 +  1 + 2 + 3 + 4 +  1 + 2 + 3 + 4 +  1 + 2 + 3 + 4 + 
G|----------------|----------------|----------------|----------------|
D|------4-5.----7-|L---------------|------4-5---5-7-|L---------------|
A|5---7-----------|--------------4-|5---7-----------|--------------4-| x4
E|----------------|--5-5-5-5-5-7---|----------------|--5-5-5-5-5-7---|
On the final repeat, the last bar changes to:
  1 + 2 + 3 + 4 + 
G|----------------|
D|L---------------|
A|----------------|
E|--5-5-5-5-5-5-5-|

Bridge
  1 + 2 + 3 + 4 +  1 + 2 + 3 + 4 +  1 + 2 + 3 + 4 +  1 + 2 + 3 + 4 + 
G|----------------|----------------|----------------|----------------|
D|----------------|----------------|----------------|----------------|
A|5-R-5-5-5-R-5-5-|5-R-5-5-5-R-5-5-|----------------|----------------| x2
E|----------------|----------------|0---R-3---R-----|7---R-5---R-----|
On the final repeat, the last bar changes to:
  1 + 2 + 3 + 4 + 
G|----------------|
D|----------------|
A|--------------5-|
E|7---R-5---R-----|

  1 + 2 + 3 + 4 +  1 + 2 + 3 + 4 +  1 + 2 + 3 + 4 +  1 + 2 + 3 + 4 + 
G|----------------|----------------|----------------|----------------|
D|----------------|----------------|----------------|----------------|
A|--R-5-5---R-5-5-|--R-5-5---R-5---|----------------|----------------|
E|3-------3-------|3-------3-------|7-R---7-R---7-R-|R---7---7---7---|

  1 + 2 + 3 + 4 +  1 + 2 + 3 + 4 +  1 + 2 + 3 + 4 +  1 + 2 + 3 + 4 +  1 + 2 + 3 + 4 + 
G|----------------|----------------|----------------|----------------|----------------|
D|----------------|----------------|----------------|----------------|----------------|
A|--R-5-5---R-5-5-|--R-5-5---R-5---|----------------|----------------|----------------|
E|3-------3-------|3-------3-------|7-R---7-R-5-7-6-|5-5-5-5-5-5-5-5-|5-R-------------|

Chorus
Bridge

Verse 2 ("...best thing in town...")
  1 + 2 + 3 + 4 +  1 + 2 + 3 + 4 +  1 + 2 + 3 + 4 +  1 + 2 + 3 + 4 +
G|----------------|---------------|----------------|----------------|
D|----------------|---------------|----------------|----------------|
A|5-5-5-4-R-5-R---|-------R-------|----------------|-------R--------|
E|----------------|---------------|5-5-5-4-R-5-R---|----------------|

  1 + 2 + 3 + 4 +  1 + 2 + 3 + 4 +  1 + 2 + 3 + 4 +  1 + 2 + 3 + 4 +  1 + 2 + 3 + 4 + 
G|----------------|---------------|----------------|----------------|----------------|
D|----------------|---------------|----------------|----------------|----------------|
A|5-5-5-4-R-5-R---|-------R-------|----------------|----------------|----------------|
E|----------------|---------------|5-5-5-4-R-5-R-5-|5-5-5-5-5-5-5-5-|5-5-5-5-5-5-5-5-|
 
  1 + 2 + 3 + 4 + 
G|----------------|
D|----------------|
A|----------------|
E|5-R-------------|

Verse, with changed final bar:
  1 + 2 + 3 + 4 + 
G|----------------|
D|----------------|
A|----------------|
E|3-3-4-5---------|

| .  dotted note
| R  rest
| L  tie (let ring)
===============================================================================
Добавлено: 27.06.2016
Другие материалы по этой песне:
  • Аккорды и текст

Страница создана 27.06.2016
http://primanota.ru/dolly-mixture/how-come-youre-such-a-hit-with-boys-jane-chords.htm
Привет, Гость.
Предлагаем пройти революционный курс по гитаре.
Подарок от PrimaNota.Ru, забирай!