PrimaNota.ru - самый крупный в мире бесплатный архив песенных текстов, аккордов, табулатур и нот


Doktor Kosmos - Jimi Tenor Och Kennet Johnsson - таба, видео

Регистрация Запомнить меня
Войти через:  Facebook Google Twitter Vk Yandex Mail.ru

Doktor Kosmos - Jimi Tenor Och Kennet Johnsson - таба, видео

Печатать
Просмотров: 77
Jimi Tenor och Kennet Johnsson
-_-_-_-_-_-_-_-_-_-_-_-_-_-_-_-
words/music: Doktor Kosmos 2002
from "Reportage!" NONSCD90
tabbed by ants
 
 
intro and chorus riff:
 
e|----------------------------------------------------|
B|----------------------------------------------------|
G|------6~(6)/------4~(4)/------2~(2)/----------------|
D|-----2-----------2-----------2-----------2-----2----|
A|0h2h4-------0h2h4-------0h2h4-------0h2h4--2-4------|
E|-------------------------------------------------0~~|
 

repeat
 

verse: jag...!       gick på konsert!
 
       D-A-D-A- |Em  E-E- E- |D-A-D-A-|
(riff:
 
       e|----------------|
       B|-----5----------|
       G|-------6--------|
       D|-4-6-----4------|
       A|-----------7----|
       E|-------------0--|
 
repeat, then chorus
 
[verse again]
 

bridge:
 
       e|-----------|------------|----------|
       B|-----------|------------|----------|
       G|---7~~~----|------------|--5-4-----|(0)~~~~~~
       D|7h9-(9)7-5-|----12--14-0|---(5)----|
       A|-----------|5/10--(12)--|----------|
       E|-----------|------------|----------|
 
[intro & verse again]
 
[chorus & verse & bridge]
 
solo: (A5,A5-B5-C5,C5-B5-A5) et cetera
 
     umm.. i'll work on a tab for the solo. but you have the chords for
now.
 
[intro, chorus (outro)..]
 
 

     
Добавлено: 14.09.2013
Вам также может быть интересно:
Другие материалы по этой песне:
  • Аккорды и текст

Страница создана 14.09.2013
http://primanota.ru/doktor-kosmos/jimi-tenor-och-kennet-johnsson-chords.htm
Привет, Гость.
Предлагаем пройти революционный курс по гитаре.
Подарок от PrimaNota.Ru, забирай!