PrimaNota.ru - самый крупный в мире бесплатный архив песенных текстов, аккордов, табулатур и нот


Doktor Kosmos - Doktor Knark Is Back In The Town - текст песни, таба, видео

Регистрация Запомнить меня
Войти через:  Facebook Google Twitter Vk Yandex Mail.ru

Doktor Kosmos - Doktor Knark Is Back In The Town - текст песни, таба, видео

Печатать
Просмотров: 93
 Doktor Knark is back in the town
-*-*-*-*-*-*-*-*-*-*-*-*-*-*-*-*-
words/music doktor kosmos (2000)
from "Evas Story" NONSCD70
tabbed by ants

[intro:] Em, Bm, Em, Bm, C, Bm, Am, Bb
a:

   E|-------------------|
   B|-------------------|
   G|-------------------|
   D|-------------0-0---|
   A|---------2-2-------|
   E|-0-0-3-3-----------| 3x then:

b:

   E|-------------------|
   B|-------------------|
   G|---------------(8-7|5~) --fillA
   D|-------------------|
   A|---------2-2-1~~~~~|
   E|-0-0-3-3-----------|

[verse:1] Em, Bm, Em, Bm, C, Bm(G), Am, Bb
   c:
                              >>fillB  
   E|-------------------|    -----------
   B|-------------------|    (..-7h8p7~)
   G|-------------------|    -----------
   D|-------------0-0---| 2x -----------
   A|---------2-2-------|    -----------
   E|-0-0-3-3-----------|    -----------

a: & b: again

   [prechorus:] Em Bm Em Bm [chorus:] C G C G C G Am Bb Bb Bb

     you're gonna bleed.. * |you're gonna cry..  |i'm.. lasergun!
   E|-------------------| * |--------|-----------|---------------|
   B|-------------------| * |--------|-----------|---------------|
   G|-------------------| * |--------|-----------|---------------|
   D|-------------------| * |--------|-----------|------8-8- 8...|
   A|-7~7---------------| * |--------|-----------|------8-8- 8...|
   E|----7/5~~7-0~~5-7~~| * |8~~~7~~~| threetimes|5~~~~~6-6- 6...|

[verse:2]

   E|-----------------------------------|
   B|7-8-7-5~~~7-8-7-5~~----------------|
   G|-------------------7-4~~~7-4~7/2~~~| twice, then pre & chorus
   D|-----------------------------------|
   A|-----------------------------------|
   E|-----------------------------------|

[solo:] -not guitar, but tabbed anyway-

   E|-------|---------------|-----------|------
   B|-------|---------------|-----------|------
   G|-------|---------------|-----------|------
   D|----5~-|----5~-----5~--| ----------|------
   A|5-7---7|5-7---7~5----7~| threetimes|5~~~--
   E|-------|----------7----| ----------|---5~~

     
Добавлено: 06.11.2013
Другие материалы по этой песне:
  • Аккорды и текст

Страница создана 22.04.2012
http://primanota.ru/doktor-kosmos/doktor-knark-is-back-in-the-town-chords.htm
Привет, Гость.
Предлагаем пройти революционный курс по гитаре.
Подарок от PrimaNota.Ru, забирай!