PrimaNota.ru - самый крупный в мире бесплатный архив песенных текстов, аккордов, табулатур и нот


Doktor Kosmos - Bredung Centrum - таба, видео

Регистрация Запомнить меня
Войти через:  Facebook Google Twitter Vk Yandex Mail.ru

Doktor Kosmos - Bredung Centrum - таба, видео

Печатать
Просмотров: 78
 Doktor Kosmos - Bredäng Centrum
---------------------------------------
music/words: doktor kosmos :2002
from "Reportage!" north-of-no-south records (NONSCD90)
tabbed by ants, 23 feb 2004

[INTRO]

   same as verse, (e/d/e) then: C#m | A

[VERSE 1]

   E                     D           E
   Häääääääääääär.....

   ...                  D                 E   (E   E    E)
   Miljonprograms........................ -
                                          Bred-äng Cent-rum!

[CHORUS 1]

                    C#m                    G#
   En familj med en hund...........

                    F#                     A
              49 å 90.......

                    C#m                    B
              Galna ..............

                    F#               (G#)  A                              (C#m)
         En stenlagd ..................................................i natt

C#m | A

[VERSE 2]

same as verse 1

[CHORUS 2]

                   C#m        G#
   En iransk diskussion......

                   F#         A

                   C#m        B
   

                   F#         A 
   

[interlude/SOLO]: (E D E D E)

"solo" is like this:

   E|-----------------------------------|-----------------------------------/
   B|-----------------------------------|-----------------------------------/
   G|------9~~~11h9(11)/13----------9~~~|------9~~~11h9(11)/13-------9------/
   D|--9-11---------------9---9-9h11----|--9-11---------------9--9-11-------/
   A|-----------------------------------|-----------------------------10~~~~/
   E|-----------------------------------|-----------------------------------/

[CHORUS 3]

             C#m   G#
   En rabatt......

             F#    A
   Och på ........

             C#m   B
   Det passerar.......

             F#    A
   Den huden.......

             C#m   G#
   Några anslag........

          F#      A
   I Tensta.......

          C#m     B
   Det är klockan.......

       F#         A
   Och allergi.......

       F#         A
   Det lovas......

       F#         A             C#m
   Jag hör ....                 idag

   (the riff below is played during the first two choruses)

a:

   E|--7-7---------------------|
   B|-----9-9-9-9-9------------|
   G|--------------6-6-6-------| 2x 
   D|-------------------9-9-9-9| then:
   A|--------------------------|
   E|--------------------------|

b:

   E|--9-9------------------------------|
   B|-----11-11-11-11-11----------------|
   G|-------------------9-9-9-----------|
   D|------------------------11-11-11-11| once
   A|-----------------------------------|
   E|-----------------------------------|

   repeat as follows - a:/a:/b:/b:/a:

     
Добавлено: 17.06.2013
Другие материалы по этой песне:
  • Аккорды и текст

Страница создана 17.06.2013
http://primanota.ru/doktor-kosmos/bredung-centrum-chords.htm
Привет, Гость.
Предлагаем пройти революционный курс по гитаре.
Подарок от PrimaNota.Ru, забирай!