PrimaNota.ru - самый крупный в мире бесплатный архив песенных текстов, аккордов, табулатур и нот


Dokken - Dont Lie To Me - текст песни, таба, видео

Регистрация Запомнить меня
Войти через:  Facebook Google Twitter Vk Yandex Mail.ru

Dokken - Dont Lie To Me - текст песни, таба, видео

Печатать
Просмотров: 185
Song:Don't Lie To Me
Artist:Dokken
Album:Uner Lock And Key
Tuning:Half Step Down

Legend
------

h  = hammer-on
p  = pull-off
b  = bend
r  = bend release
/  = slide up/down
<5> = natural harmonic
[5] = artifical harmonic
~  = vibrato
tr = trill


Eb|------------------------|----------------------------|--------------|
Bb|------------------------|----------------------------|--------------|
Gb|------------------------|----------------------------|--------------|
Db|---------5-4h5-4-----9\-|---5-4~-5-4--------------9\-|---5-4~-5-4---|
Ab|-----5-7---------7-5-7\-|-7----------7-5-7~-7~----7\-|-7----------7-|
Eb|-5/7--------------------|----------------------7~----|--------------|



Eb|-------------|-----------------------------------------------------|
Bb|-------------|---*-------------------------------------------------|
Gb|-------------|-----------------------------------------------------|
Db|-------------|-----9-----9-----9----7-----7-----7----9-----9-----9-|
Ab|-5-7~-7~-----|---*-7-0-0-7-0-0-7-0--5-0-0-5-0-0-5-0--7-0-0-7-0-0-7-|
Eb|---------7~--|-----------------------------------------------------|

       Ending A       Ending B

Eb|-----------------------------------|-------------------------------|
Bb|-------3-----------3--------------*|-------------------------------|
Gb|----0--2-----------0--0------------|----------------------0--7--9\-|
Db|----0--0-----------2--0------------|----------5-4h5-4-----0--7--9\-|
Ab|-0--------2h3-2-0--3-----2h3-2-0--*|------5-7---------7-5----5--7\-|
Eb|----3-----------------3------------|--5/7-----------------3--------|

                                                          Chorus section

Eb|---------------------------------------------------22b23~------------|
Bb|---------------------------------------------------------------------|
Gb|-5--5--7--9---------------------0--7--9\-5--5--7----------9\--5--5-7-|
Db|-5--5--7--9---------5-4h5-4-----0--7--9\-5--5--7----------9\--5--5-7-|
Ab|-3--3--5--7-----5-7---------7-5----5--7\-3--3--5----------7\--3--3-5-|
Eb|------------5/7-----------------3------------------------------------|



Eb|------------------|-------------------------------------------------|
Bb|------------------|-------------------------------------------------|
Gb|-7--9\--5--7-4-4--|-------------------------------------------------|
Db|-7--9\--5--7-4-4--|-9-----9-----9----7-----7-----7----7-----7-----7-|
Ab|-5--7\--3--5-2-2--|-7-0-0-7-0-0-7-0--7-0-0-7-0-0-7-0--5-0-0-5-0-0-5-|
Eb|------------------|-------------------------------------------------|

                 Pre Solo section

Eb|---------|-------------------------------|------------------------|
Bb|---------|*----------3---3-----------3--*|------------------9-10--|
Gb|---------|-------0---2---0-------0---2---|--x-9~--9-7-9-11--------|
Db|--(7)----|---2---0---9---2---2---0---0---|------------------------|
Ab|--(5)----|*--2-----------3---2----------*|------------------------|
Eb|-------x\|---0---3-----------0---3-------|------------------------|



Eb|-------------------|--------------------------------------------------|
Bb|-9-10-12-10-9------|------10---12---13---10---12---13-12h9------------|
Gb|--------------9~---|----9----9----9----9----9----9----------12-7/9-12-|
Db|-------------------|--------------------------------------------------|
Ab|-------------------|--------------------------------------------------|
Eb|-------------------|--------------------------------------------------|



Eb|----------------------------------------------------12-10-8-----------|
Bb|--9-12-9---------x-x-10/12-10-------------------------------11-10-8---|
Gb|---------12-9~---x-x--9/11--9--------<12>-<12>------------------------|
Db|--------------------------------<12>------<12>------------------------|
Ab|----------------------------------------------------------------------|
Eb|----------------------------------------------------------------------|



Eb|-7h8-7h8-7-5-7-5------------------------------------------------------|
Bb|-----------------8-7-5-3-----------------------------------------8-10-|
Gb|-------------------------5-3b4--r---------------8/-9------8-9-10------|
Db|-------------------------------------------9-10------9-10-------------|
Ab|--------------------------------------9-10----------------------------|
Eb|----------------------------------7-8---------------------------------|



Eb|------------|
Bb|-11-10b11---|
Gb|------------|
Db|------------|
Ab|------------|
Eb|------------|


LYRICS:

You didn't see me, but I overheard
A short conversation was just a few words
A lie and a whisper, a knife in my back
The things you were saying lead me to believe
You want no part of me

Leave me go, turn and walk away, turn your back on me 
If you stay, there's just one thing that I've got to say

Just don't lie to me
Don't treat me like a fool
Just don't lie to me
Like the way you used to do

Voices that whisper, dark deep despair
Burns me like fire, these things that I hear

Leave me go, turn and walk away, turn your back on me
If you stay, there's just one thing that I've got to say

Just don't lie to me
Don't treat me like a fool
Just don't lie to me
Like the way you used to do

Tell me it's over, don't tell me you care
Don't wanna hear it no more
Don't say you love me, if the feeling's not there
Just turn and leave me, I want no part of you

Just don't lie to me
Don't treat me like a fool
Just don't lie to me
Like the way you used to do

Just don't lie to me
Don't treat me like a fool
Just don't lie to me
Like the way you used to do

Just don't lie to me
Or I'll be on my way
Just don't lie to me
I won't be back again

Just don't lie to me
Don't treat me like a fool
Just don't lie to me
Like the way you used to do

Just don't lie to me




Добавлено: 21.07.2012
Другие материалы по этой песне:

Страница создана 02.04.2012
http://primanota.ru/dokken/dont-lie-to-me-chords.htm
Привет, Гость.
Предлагаем пройти революционный курс по гитаре.
Подарок от PrimaNota.Ru, забирай!