PrimaNota.ru - самый крупный в мире бесплатный архив песенных текстов, аккордов, табулатур и нот


Dokken - Burning Like A Flame - текст песни, таба, видео

Регистрация Запомнить меня
Войти через:  Facebook Google Twitter Vk Yandex Mail.ru

Dokken - Burning Like A Flame - текст песни, таба, видео

Печатать
Просмотров: 253
Song:Burning Like A Flame
Written By:G.Lynch,J.Pilson,D.Dokken,M.Brown
Artist:Dokken
Album:Back For The Attack
Tuning:Standard

Legend
------

h  = hammer-on
p  = pull-off
b  = bend
r  = bend release
/  = slide up/down
<5> = natural harmonic
[5] = artifical harmonic
~  = vibrato
tr = trill


E|-2--(2)-|------------------|-------------------|-----------------|---|
B|-3--(3)-|*-8---7---------7-|---7\5---5~----(5)/|-8---7-----------|---|
G|-2--(2)-|--7---7---------7-|---7\5-5-5~----(5)/|-7---7---------7-|---|
D|--------|--9-0-7-0-0-0-0-7-|-0-7\5-5-5~----(5)/|-9-0-7-0-0-0-0-7-|-0-|
A|--------|*-----------------|-------------------|-----------------|---|
E|--------|------------------|-------------------|-----------------|---|



E|-------0-------|-----------------|-----------------|-----------------|
B|---------3-----|-8---7---------7-|---7\5---5~--(5)/|-8---7---------7-|
G|-7\5-------0---|-7---7---------7-|---7\5-5-5~--(5)/|-7---7-----------|
D|-7\5-5-------0-|-0-0-0-0-0-0-0-7-|-0-7\5-5-5~--(5)/|-0-0-0-0-0-0-0---|
A|---------------|-----------------|-----------------|-----------------|
E|---------------|-----------------|-----------------|-----------------|



E|------------------------|-----------------|----------------|---------|
B|-(7)p-8-7-5-7p-5--------|-8---7---------7-|---7\5---5~-(5)/|---8---7-|
G|-----------------5------|-7---7---------7-|---7\5-5-5~-(5)/|---7---7-|
D|-------------------5~---|-9-0-7-0-0-0-0-7-|-0-7\5-5-5~-(5)/|---0-0---|
A|------------------------|-----------------|----------------|---------|
E|------------------------|-----------------|----------------|---------|



E|------------|------------------0-|-----------------|-------------|---|
B|------------|------------3---3---|-8---7---------7-|---7\5-5~-x/-|---|
G|------------|---------12-5---5---|-7---7---------7-|---7\5-5~----|-2-|
D|-0-0-0-0-12-|-0-12\10-12---5-----|-0-0-0-0-0-0-0-7-|-0-7\5-5~----|-2-|
A|---------12-|---12\10------------|-----------------|-------------|-0-|
E|------------|--------------------|-----------------|-------------|---|



E|-----5-----|-3---3--|-----------------|-----------------|-------------|
B|-----5-----|-3---3--|-8---7---------7-|---7\5---5~--(5)/|-8---7-------|
G|--2--------|-0---0--|-7---7---------7-|---7\5-5-5~--(5)/|-7---7-------|
D|--2--------|-----0--|-0-0-7-0-0-0-0-7-|-0-7\5-5-5~--(5)/|-9-0-7-0-0-0-|
A|--0----0-2-|-3------|-----------------|-----------------|-------------|
E|-----------|-----3--|-----------------|-----------------|-------------|



E|-----|-------------------|-----------|-----------------------|--------|
B|-----|---7\5------------*|-6-----5---|-----------------------|-8------|
G|---7-|---7\5-5-4-2-------|-5-------5-|------(5)--5-----5-----|-7------|
D|-0-7-|-0-7\5-0-0---5p3~--|-5-------5-|------(5)--5-----5-----|-7------|
A|-----|------------------*|-3-------3-|------(3)----3-3---3-3-|-5------|
E|-----|-------------------|-----------|-----------------------|--------|



E|---|--------------|-3-----1-|-(1)-----------|----------------|--------|
B|-7-|--------------|-3-----1-|-(1)--5--------|----------------|--------|
G|---|-7--7---7\----|-0-----0-|-(0)--5--5---3-|-(3)--3--3--5-5-|-(5)----|
D|---|-7--7---7\----|-0-----3-|-(3)--5----5-3-|-(3)--3--3--5-5-|-(5)-5--|
A|---|-5--5---5\----|---------|------3------1-|-(1)--1--1--3-3-|-(3)----|
E|---|------------3-|-3-------|---------------|----------------|--------|



E|---------5-3-|-(3)------1-|-(1)------------|-----------------|--------|
B|-5-------5-3-|-(3)------1-|-(1)---5--------|-----------------|--------|
G|---5---5---0-|-(0)------0-|-(0)---5--5---3-|-(3)--3--3--5-5--|-(5)----|
D|-----5-----0-|-(0)------3-|-(3)---5----5-3-|-(3)--3--3--5-5--|-(5)--5-|
A|-------------|------------|-------3------1-|-(1)--1--1--3-3--|-(3)----|
E|-----------3-|-(3)--------|----------------|-----------------|--------|



E|---------5-3--|---(3)----1-|-(1)-----------|----------------|---------|
B|-5-------5-3--|---(3)----1-|-(1)--5--------|----------------|-------5-|
G|---5---5---0--|---(0)----0-|-(0)--5--5---3-|-(3)--3--3--5-5-|-(5)-----|
D|-----5-----0--|---(0)----3-|-(3)--5----5-3-|-(3)--3--3--5-5-|-(5)-5---|
A|--------------|------------|------3------1-|-(1)--1--1--3-3-|-(3)-----|
E|-----------3--|---(3)------|---------------|----------------|---------|



E|---------5-3--|-(3)----1-|-(1)------------|-----------------|-------|
B|-------5-5-3--|-(3)----1-|-(1)---5--------|-----------------|-------|
G|-5---5-----0--|-(0)----0-|-(0)---5--5---3-|-(3)--3--3--5-5--|-(5)---|
D|---5-------0--|-(0)----3-|-(3)---5----5-3-|-(3)--3--3--5-5--|-(5)-5-|
A|--------------|----------|-------3------1-|-(1)--1--1--3-3--|-(3)---|
E|-----------3--|-(3)------|----------------|-----------------|-------|



E|----------|-----------------|-----------------|-----------------|---|
B|-5--------|-8---7---------7-|---7\5---5---(5)/|-8---7-----------|---|
G|---5------|-7---7---------7-|---7\5-5-5---(5)/|-7---7---------7-|---|
D|-----5----|-9-0-7-0-0-0-0-7-|-0-7\5-5-5---(5)/|-9-0-7-0-0-0-0-7-|-0-|
A|-------3~-|-----------------|-----------------|-----------------|---|
E|----------|-----------------|-----------------|-----------------|---|



E|-------0-------|-----------------|-----------------|-------------|
B|---------3-----|*-(5)---5--------|-----------------|-------------|
G|-7\5-------0---|--(5)-----5------|-7-----7-----7---|---7-----7---|
D|-7\5-5-------0-|--(5)-5-----5----|-7-----7-----7---|---7-----7---|
A|---------------|*-(3)---------3~-|-5-5-5-5-5-5-5-5-|-5-5-5-5-5-5-|
E|---------------|-----------------|-----------------|-------------|

                                       G5
         E5 -----------------------------------  this bar 1st time thru

E|-----|---------------|------------|--------------|---------------|
B|-----|---------------|------------|--------------|--------------*|
G|-7---|-2-1-------2-1-|------------|-5-4------4-2-|---------------|
D|-7---|-----2---------|-2----2--2--|-----5--------|-4-------------|
A|-5-5-|-------2~------|---2--2--2--|-------5~-----|---2~-2/4\-2--*|
E|-----|---------------|------0--0--|--------------|---------------|

   this bar 2nd time thru guitar solo

E|--------------|------------------|----------------------------------|
B|--------------|------------------|----------------------------------|
G|--------------|-5~---------------|-(5)--5--7--7b9--r-5p7-5\-3h-5p-3/|
D|-4------------|------------------|----------------------------------|
A|---2~-2~-2/3--|-3~---------------|-(3)------------------------------|
E|--------------|------------------|----------------------------------|



E|---------|-----------------------|--------------|---------------------|
B|---------|-----------------------|--------------|---------------------|
G|--5\-3---|-(3)-------------------|-9-10p9~----9-|-10p12-12b14---r10p9-|
D|---------|----------------5/-10--|---------10---|---------------------|
A|---------|-----------------------|--------------|---------------------|
E|---------|-----------------------|--------------|---------------------|



E|----|---------------|------------------------|
B|----|---------11~---|-(11)-------------(11)\-|
G|----|-----10--------|------------------------|
D|-10p|-8-------------|------------------------|
A|----|---------------|------------------------|
E|----|---------------|------------------------|


LYRICS:

Never thought our love would last
For so long
Time and time again
I thought that you would be gone
Still we kept love hanging on
I guess it's meant to be
That your heart still belongs to me

And now we've stood the test of time
We survived
I asked for hope and a chance
You gave the key to your heart
You used to say that I'm not sincere
I'm gonna prove that you're wrong
I'm never gonna leave your arms
Should've realized before
Your love's worth waiting for

Don't you know that
It's our love that's burning
Burning like a flame
And you know that
It's out love that's never gonna change
'Cause every time I touch you
You just make me go insane
Don't you know that
It's our love that's burning

Our love burning like a flame

Like a fantasy in the dark
You were gone
I couldn't say the words
That you wanted to hear
But baby, now that I see the light
I feel it's burning so bright
So let's stop wasting all this time
Should've seen it all before
Our love's worth waiting for

Don't you know that
It's our love that's burning
Burning like a flame
And you know that
It's out love that's never gonna change
'Cause every time I touch you
You just make me go insane
Don't you know that
It's our love that's burning

Our love burning like a flame

Should've seen it all before
Your love's worth waiting for

Don't you know that
It's our love that's burning
Burning like a flame
And you know that
It's out love that's never gonna change
'Cause every time I touch you
You just make me go insane
Don't you know that
It's our love that's burning
Our love burning like a flame
Our love, never gonna change
Добавлено: 09.05.2012
Другие материалы по этой песне:

Страница создана 09.05.2012
http://primanota.ru/dokken/burning-like-a-flame-chords.htm
Привет, Гость.
Предлагаем пройти революционный курс по гитаре.
Подарок от PrimaNota.Ru, забирай!