PrimaNota.ru - самый крупный в мире бесплатный архив песенных текстов, аккордов, табулатур и нот


Dogwood - Confusion Zero - текст песни, таба, видео

Регистрация Запомнить меня
Войти через:  Facebook Google Twitter Vk Yandex Mail.ru

Dogwood - Confusion Zero - текст песни, таба, видео

Печатать
Просмотров: 132
Dogwood - Confusion Zero - More Than Conquerors [Db,Ab,Db,Gb,Bb,Eb]
Tabbed By Jordan Fuller 7/21/10

Intro

Db:---7--7-7--7-777-7--7-7--7-777-7--7-7--7-777-7--7-7--7-777-|
Ab:---7--7-10---PM--7--7-10---PM--7--7-7----PM--7--7-7---PM---|
Db:---10-9-9--------10-9-9--------10-9-7--------10-9-7--------|x2
Gb:-----------------------------------------------------------|
Bb:-----------------------------------------------------------|
Eb:-----------------------------------------------------------|

Pre-Verse

Db:----------------------3-3-333-333-333----------------------|
Ab:--3-3-333-3-2-2-222-2-3-3-333-333-333----------------------|
Db:--5-5-555-5-5-5-555-5-3-3-333-333-333----------------------|x2
Gb:-----------------------------------------------------------|
Bb:-----------------------------------------------------------|
Eb:-----------------------------------------------------------|

Verse

Db:--77777777-33333333-55555555101010101010999999-------------------|
Ab:--77777777-33333333-55555555101010101010999999-------------------|
Db:--77777777-33333333-55555555101010101010999999-------------------|x4
Gb:-----------------------------------------------------------------|
Bb:-----------------------------------------------------------------|
Eb:-----------------------------------------------------------------|

Breakdown-Verse

Db:--10-10-10-10-101010-9-9-9-9-999---------------------------|
Ab:--10-10-10-10-101010-9-9-9-9-999---------------------------|
Db:--10-10-10-10-101010-9-9-9-9-999---------------------------|
Gb:-------PM-----------------PM-------------------------------|
Bb:-----------------------------------------------------------|
Eb:-----------------------------------------------------------|

After Breakdown-Verse Back to Verse x4

Chorus

Db:--------------7-7-7-7-8-8-8-8-10-10-10-10-9-9-9-9-|
Ab:--12-12-12-12-7-7-7-7-8-8-8-8-10-10-10-10-9-9-9-9-|
Db:--15-15-14-14-7-7-7-7-8-8-8-8-10-10-10-10-9-9-9-9-|x2
Gb:--------------------------------------------------|
Bb:--------------------------------------------------|
Eb:--------------------------------------------------|

Back to the Intro x2

Bridge

Db:--------------------------------3-3--3-3--3-3--3-3-|
Ab:--3-3--3-3--3-2--2-2--2-2--2-3--3-3--3-3--3-3--3-3-|
Db:--5-5--5-5--5-5--5-5--5-5--5-3--3-3--3-3--3-3--3-3-|x2
Gb:---------------------------------------------------|
Bb:---------------------------------------------------|
Eb:---------------------------------------------------|

Back to Pre-Verse x2

End Note:C

Db:----
Ab:--2-
Db:--5-
Gb:--5-
Bb:----
Eb:----

Check Song For Rythem At The Chorus And Verse Any Problems Email Me Or Message Me...........Enjoy!
Добавлено: 05.03.2012
Другие материалы по этой песне:
  • Аккорды и текст

Страница создана 05.03.2012
http://primanota.ru/dogwood/confusion-zero-chords.htm
Привет, Гость.
Предлагаем пройти революционный курс по гитаре.
Подарок от PrimaNota.Ru, забирай!