PrimaNota.ru - самый крупный в мире бесплатный архив песенных текстов, аккордов, табулатур и нот


Dogwood - Comes Crashing - текст песни, таба, видео

Регистрация Запомнить меня
Войти через:  Facebook Google Twitter Vk Yandex Mail.ru

Dogwood - Comes Crashing - текст песни, таба, видео

Печатать
Просмотров: 117


COMES CRASHING - Dogwood 
Tabbed by johan van der westhuizen(fendersignature@hotmail.com)
Email me with corrections

Intro on pm 
e|--------------------------------------------------------------------------
B|--------------------------------------------------------------------------
G|-6-6-4-4-6-6-4-4-6-6-4-4-6-6-4-4------------------------------------------ 
D|-4-4-4-4-4-4-4-4-4-4-4-4-4-4-4-4-4-4-7-7-4-4-7-7-4-4-7-7-4-4-7-7----end-4-
A|---------------------------------5-5-5-5-5-5-5-5-5-5-5-5-5-5-5-5--------5-
E|-------------------------------------------------------------------------- 

e|-------------------------------------------------------------------------- 
B|--------------------------------------------------------------------------
G|-6-6-4-4-----4-4-6-6-4-4-----4-4------------------------------------------
D|-4-4-4-4-4-4-4-4-4-4-4-4-4-4-4-4------------------------------------------
A|---------5-5-------------5-5----------------------------------------------
E|--------------------------------------------------------------------------

A pm 
e|--------------------------------------------------------------------------
B|--------------------------------------------------------------------------
G|-6-6-4-4-6-6-4-4-6-6-4-4-6-6-4-4------------------------------------------ 
D|-4-4-4-4-4-4-4-4-4-4-4-4-4-4-4-4--7-7-7-7-7-7-7-7-7-7-7-7-7-7-7-7---------
A|----------------------------------5-5-5-5-5-5-5-5-5-5-5-5-5-5-5-5---------
E|--------------------------------------------------------------------------

Pm 
e|--------------------------------------------------------------------------
B|--------------------------------------------------------------------------
G|-----------------------------------------------------------------end-6-6-6
D|-4-4-4-4-4-4-4-4-4-4-4-4-4-4-4-4-------------------------------------x-x-x
A|-2-2-2-2-2-2-2-2-2-2-2-2-2-2-2-2--5-5-5-5-5-5-5-5-5-5-5-5-5-5-5-5----4-4-4 
E|----------------------------------3-3-3-3-3-3-3-3-3-3-3-3-3-3-3-3--------- 

e|--------------------------------------------------------------------------
B|--------------------------------------------------------------------------
G|-6-6-4-4-----4-4-6-6-4-4-----4-4------------------------------------------
D|-4-4-4-4-4-4-4-4-4-4-4-4-4-4-4-4-----4-4-4-4-4-7-7-7-7-7------------------
A|---------5-5-------------5-5---------4-4-4-4-4-7-7-7-7-7------------------
E|-------------------------------------4-4-4-4-4-7-7-7-7-7------------------


Добавлено: 06.01.2014
Другие материалы по этой песне:
  • Аккорды и текст

Страница создана 23.06.2012
http://primanota.ru/dogwood/comes-crashing-chords.htm
Привет, Гость.
Предлагаем пройти революционный курс по гитаре.
Подарок от PrimaNota.Ru, забирай!