PrimaNota.ru - самый крупный в мире бесплатный архив песенных текстов, аккордов, табулатур и нот


Dogma - Fly 4 Free - таба, видео

Регистрация Запомнить меня
Войти через:  Facebook Google Twitter Vk Yandex Mail.ru

Dogma - Fly 4 Free - таба, видео

Печатать
Просмотров: 117
song : Fly 4 free
artist: dogma
album: superfix

tabbed by Francisco Barros
e-mail: chanchofbp@hotmail.com

Intro:

gtr 1 & 2 with dropped D tunning

  Gtr 1:
e|-------------------|-------------------|
b|-------------------|-------------------|
g|-------------------|-------------------|
d|-0--3--0-----------|-------------------|
a|-0--3--0-----------|-------------------|
e|-0--3--0-----------|-----5b-----5b--5b-|

  Gtr 1 & 2: (x2)
e|----------------------------|-----------------------------|
b|----------------------------|-----------------------------|
g|----------------------------|-----------------------------|
d|-----0-------0---3p0---3--0-|-----0-------0---3p0---3--0--|
a|----------------------------|-----------------------------|
e|-3h5---0h3p0---0-----0---0--|-3h5---0h3p0---0-----0---0---|


  Gtr 1&2: fig 1a (x2)
e|----------------------------|-----------------------------|
b|----------------------------|-----------------------------|
g|----------------------------|-----------------------------|
d|-----0-------0---3p0---3--0-|-----0-------0---3p0---3--0--|
a|----------------------------|-----------------------------|
e|-3h5---0h3p0---0-----0---0--|-3h5---0h3p0---0-----0---0---|
|Gtr 3: fig 1b (x2)          |                             |
e|----------------------------|-----------------------------|
b|----------------------------|-----------------------------|
g|-0h2p0---0------------------|-0h2p0---0-------------------|
d|-------4---4-0--------------|-------4---4-0---------------|
a|----------------------------|-----------------------------|
e|----------------------------|-----------------------------|


  Gtr 1&2:fig 2
e|-------------------------------|-------------------------------|
b|-------------------------------|-------------------------------|
g|-12-12-12-12-11-11-11-11-11-11-|-12-12-12-12-11-11-11-11-------|
d|-10-10-10-10-0--0--0--0--0--0--|-10-10-10-10-0--0--0--0--3-0-3-|
a|-10-10-10-10-9--9--9--9--9--9--|-10-10-10-10-9--9--9--9--3-0-3-|
e|-10-10-10-10-0--0--0--0--0--0--|-10-10-10-10-0--0--0--0--3-0-3-|

e|-------------------------------|-------------------------------|
b|-------------------------------|-------------------------------|
g|-12-12-12-12-11-11-11-11-11-11-|-10-10-10-10-11-11-11-11-------|
d|-10-10-10-10-0--0--0--0--0--0--|-10-10-10-10-0--0--0--0--3-0-3-|
a|-10-10-10-10-9--9--9--9--9--9--|-8--8--8--8--9--9--9--9--3-0-3-|
e|-10-10-10-10-0--0--0--0--0--0--|-------------0--0--0--0--3-0-3-|


Verse:
play fig 1a (x2) gtr 1&2
then play:

  gtr 1&2: fig 3 (x2)
e|----------------------------|-----------------------------|
b|----------------------------|-----------------------------|
g|-------0--------------------|-----------------------------|
d|-7p0-------4---4p0---4---0--|-----------------------------|
a|----------------------------|-----------------------------|
e|-----0---0---0-----0---0----|-----------------------------|

Chorus: fig 2 (x2)
verse 2: (play same thing as the first one)

Interlude:
  Gtr 1: fig 4a
e|---------------------------|--------------------------|
b|---------------------------|--------------------------|
g|---------------------------|--------------------------|
d|-2h3-3-3--2h3-3-3--2h3-3-3-|-6-5-3-5-x-5---5-x-x-5-5--|
a|-2h3-3-3--2h3-3-3--2h3-3-3-|-6-5-3-5-x-5---5-x-x-5-5--|
e|-2h3-3-3--2h3-3-3--2h3-3-3-|-6-5-3-5-x-5---5-x-x-5-5--|

e|---------------------------|-----------------------------|
b|---------------------------|-----------------------------|
g|---------------------------|-----------------------------|
d|-2h3-3-3--2h3-3-3--2h3-3-3-|-6-5-3-5-x-5-2-2-2-2-2-2-2-2-|
a|-2h3-3-3--2h3-3-3--2h3-3-3-|-6-5-3-5-x-5-2-2-2-2-2-2-2-2-|
e|-2h3-3-3--2h3-3-3--2h3-3-3-|-6-5-3-5-x-5-2-2-2-2-2-2-2-2-|

  Gtr 2: fig 4b
e|---------------------------|--------------------------|
b|-5/6-6-6--5/6-6-6--5/6-6-6-|-9\8---8-x-8---8-x-x-8-8--|
g|-4/5-5-5--4/5-5-5--4/5-5-5-|-8\7---7-x-7---7-x-x-7-7--|
d|-2/3-3-3--2/3-3-3--2/3-3-3-|-6\5---5-x-5---5-x-x-5-5--|
a|---------------------------|--------------------------|
e|---------------------------|--------------------------|

e|---------------------------|-----------------------------|
b|-5/6-6-6--5/6-6-6--5/6-6-6-|-9\8---8-x-8-5-5-5-5-5-5-5-5-|
g|-4/5-5-5--4/5-5-5--4/5-5-5-|-8\7---7-x-7-4-4-4-4-4-4-4-4-|
d|-2/3-3-3--2/3-3-3--2/3-3-3-|-6\5---5-x-5-2-2-2-2-2-2-2-2-|
a|---------------------------|-----------------------------|
e|---------------------------|-----------------------------|

(Chorus)

Solo:
play fig 1a (x2) and then fig4 a&b

  gtr 3:
e|-------------------------|-------------------------------|
b|-------------------------|-------------------------------|
g|-------------------------|-------------------------------|
d|--------------3----------|--------------5-------3--------|
a|-3h5--5-5-5-5-----5--3h5-|-3h5--5-5-5-5-----3h5---5------|
e|-------------------------|-------------------------------|

e|---------------------------------|------------------------------------|
b|---------------------------------|------------------------------------|
g|-------------------10------------|-------------------12-10------------|
d|-10h12-12-12-12-12-----12--10h12-|-10h12-12-12-12-12-------12-10h12---|
a|---------------------------------|------------------------------------|
e|---------------------------------|------------------------------------|

e|-----------------------------------------------------------|
b|-----------------------------------------------------------|
g|-------------------10----10-11-12-13-12-10----10-----------|
d|----------10-11-12----12-------------------12----12-10-12--|
a|-10-11-12--------------------------------------------------|
e|-----------------------------------------------------------|

e|--------------------------------------------|---------------------------------------|
b|--------------------------------------------|-/13-13-13-13--/13-13-13-13------13-15-|
g|-------10----12--10-12-13p12p10----10-10h12-|-/14-14-14-14--/14-14-14-14--/14-------|
d|-10h12----12--------------------12----------|---------------------------------------|
a|--------------------------------------------|---------------------------------------|
e|--------------------------------------------|---------------------------------------|

e|-15-13h15p13----------------------------------------------------|
b|-------------15-14-13----15p14p13-------------------------------|
g|----------------------14----------13-12-10----12----10----------|
d|-------------------------------------------12----12----12-10-12-|
a|----------------------------------------------------------------|
e|----------------------------------------------------------------|

Chorus

Outro:

fig 5:               end fig 5  play this part before the last solo
e|----------------------------||---------------------------|
b|----------------------------||---------------------------|
g|----------------------------||---------------------------|
d|-7-----5-----4------4-------||-7-----5-----4-------------|
a|---5-----5-------5------5---||---5-----5-----------------|
e|-----0-----0-------0------0-||-----0-----0---------------|


  gtr 3: (outro solo) play it with fig 4
e|--------------------|-----------------------------|
b|----------10-12-10--|-----------------------------|
g|----------10-12-10--|---------10--------10-12-10--|
d|-12-----------------|-10h12-x-----10h12-----------|
a|--------------------|-----------------------------|
e|--------------------|-----------------------------|

e|------10-------------------|-----------------------------|
b|-9/10----13-12-10----------|-----------------------------|
g|------------------13-12-10-|-12-10-----------------------|
d|---------------------------|-------12-10-12--------------|
a|---------------------------|-----------------------------|
e|---------------------------|-----------------------------|

e|----------------------------|-----------------------------|
b|----------------------------|-----------------------------|
g|----------------------------|-----------------------------|
d|-12-12-12-10----------------|-----------------------------|
a|---------------12-----------|-----------------------------|
e|----------------------------|-----------------------------|

e|----------------------------|-------------10--------------|
b|-13-13-13-12-10-------------|-13-13-13-12-10--------------|
g|-12-12-12-12-10-------------|-12-12-12-12-----------------|
d|-----------------12-10-12---|-----------------------------|
a|----------------------------|-----------------------------|
e|----------------------------|-----------------------------|


e|----------------------------|-------------10--------------|
b|-13-13-13-12-10-------------|-13-13-13-12-10--------------|
g|-12-12-12-12-10-------------|-12-12-12-12-----------------|
d|-----------------12-10-12---|-----------------------------|
a|----------------------------|-----------------------------|
e|----------------------------|-----------------------------|

e|----------------------------|-----------------------------|
b|------------7---------------|-----------------------------|
g|-5----------7---------------|-----------------------------|
d|-5----------7---------------|-----------------------------|
a|-5----------x---------------|-----------------------------|
e|-5----------5---------------|-----------------------------|
    -nat. harm->

the end.

tabbed by Francisco Barros
e-mail: chanchofbp@hotmail.com

_________________________________________________________________
     
Добавлено: 01.11.2013
Другие материалы по этой песне:
  • Аккорды и текст

Страница создана 01.11.2013
http://primanota.ru/dogma/fly-4-free-chords.htm
Привет, Гость.
Предлагаем пройти революционный курс по гитаре.
Подарок от PrimaNota.Ru, забирай!