PrimaNota.ru - самый крупный в мире бесплатный архив песенных текстов, аккордов, табулатур и нот


Dogma - Fallen Hero - аккорды и текст, видео

Регистрация Запомнить меня
Войти через:  Facebook Google Twitter Vk Yandex Mail.ru

Dogma - Fallen Hero - аккорды и текст, видео

Печатать
Просмотров: 116
Уроки эстрадного вокала в Санкт-Петербурге
Fallen Hero
Dogma
Band:dogma
Song:Fallen Hero



This is a really easy song, and it sounds great!!!
Intro
e----------------
b----------------
g----------------
d5-5-3-3-2-2-----
a-------------3-3--
E----------------

Verses
e-----------------
b-----------------
g-5-5---------------
d-5-5--7-7------------
a-3-3--7-7------------
E------5-5-----------

Pre-Chorus
-Power-chords =20
F G A

Chorus
e-------------------------
b-------------------------
g-5-5--5-5---------
d-x-x--x-x--5-5--7-7------------
a-6-6--3-3--5-5--7-7-----------
E-----------3-3--5-5---------
That is pretty much the whole song....I dont know the =20
Solo if you do e-mail me sladerocker@hotmail.com
     
Добавлено: 10.07.2013
Другие материалы по этой песне:
  • Аккорды и текст

Страница создана 10.07.2013
http://primanota.ru/dogma/fallen-hero-chords.htm
Привет, Гость.
Предлагаем пройти революционный курс по гитаре.
Подарок от PrimaNota.Ru, забирай!