PrimaNota.ru - самый крупный в мире бесплатный архив песенных текстов, аккордов, табулатур и нот


Dog Fashion Disco - Sweet Insanity - текст песни, таба, видео

Регистрация Запомнить меня
Войти через:  Facebook Google Twitter Vk Yandex Mail.ru

Dog Fashion Disco - Sweet Insanity - текст песни, таба, видео

Печатать
Просмотров: 133
Уроки эстрадного вокала в Санкт-Петербурге
Sweet Insanity
 Dog Fashion Disco
  Adultery

This is an amazing song from Dog Fashion Disco's sixth and final studio album. I 
this from a Guitar Pro tab I made so I might submit a GP file with the drum,bass, and keyboard 
later.

Notes:
The rhythms in the first choruses may not be right, but they sound cool.

Updates:

	1/13/08-
	Made the whole tab look better
	Shortened it by adding repeats
	Changed parts in the verse

	1/31/08-
	Finally figured out the clean part in the first interlude


 Tuning is Drop D (D A D G B E)

	Intro
 6/8
 89 bpm
 (Clean)

   S S S S S S S S S S S S    S S S S S S S S S S S S	\
|--------------------------|--------------------------|	|
|--------------------------|--------------------------|	|
|--------0-----------0-----|--------0-----------0-----|	|
|----7-------7---7-------7-|----3-------3---3-------3-|	|
|--5---5---5---5---5---5---|--5---5---5---5---5---5---|	|
|--------------------------|--------------------------|	|
							|
							|
   S S S S S S S S S S S S    S S S S S S S S S S S S	|
|--------------------------|--------------------------|	|
|--------------------------|--------------------------|	|
|--------0-----------0-----|--------0-----------0-----|	|
|----7-------7---7-------7-|----8-------8---8-------8-|	|
|--8---8---8---8---8---8---|--7---7---7---7---7---7---|	|
|--------------------------|--------------------------|	|
							|
							| x2
   S S S S S S S S S S S S    S S S S S S S S S S S S	|
|--------------------------|--------------------------|	|
|--------------------------|--------------------------|	|
|--------0-----------0-----|--------0-----------0-----|	|
|----5-------5---5-------5-|----5-------5---5-------5-|	|
|--3---3---3---3---3---3---|--2---2---2---2---2---2---|	|
|--------------------------|--------------------------|	|
							|
							|
   S S S S S S S S S S S S    S S S S S S S S S S S S	|
|--------------------------|--------------------------|   -- |
|--------------------------|--------------------------|   -- |
|--------0-----------0-----|--------0-----------0-----|   -- |
|----3-------3---3-------3-|----3-------3---2-------2-|   -- |
|--1---1---1---1---1---1---|--0---0---0---0---0---0---|   -- |
|--------------------------|-------------------------------- |    /


	Verse
(Distortion)

      PM PM       PM PM          PM PM       PM PM
   E  S  S  E  E  S  S  E     E  S  S  E  E  S  S  E
|--------------------------|--------------------------|
|--------------------------|--------------------------|
|--7--------7--6--------6--|--7--------7--8--------8--|
|--x--------x--x--------x--|--x--------x--x--------x--| x2
|--5--0--0--5--4--0--0--4--|--5--0--0--5--6--0--0--6--|
|--0--0--0--0--0--0--0--0--|--0--0--0--0--0--0--0--0--|

        PM PM       PM PM             PM PM       PM PM
     E  S  S  E  E  S  S  E        E  S  S  E  E  S  S  E
|--/10--------------------4---|--/10--------------------4--|
|--/10--------------------4---|--/10--------------------4--|
|---/8--------------------2---|---/8--------------------2--|
|----0--------------------0---|----0--------------------0--| x2
|----0--0--0--0--0--0--0--0---|----0--0--0--0--0--0--0--0--|
|----0--0--0--0--0--0--0--0---|----0--0--0--0--0--0--0--0--|

	Pre-Chorus

   E  S S S S E  S S S S    E  S S S S   S  S  S   S  S  S
|------------------------|---------------------------------|
|------------------------|---------------------------------|
|------------------------|---------------------------------|
|------------------------|---------------------------------|
|--5--5-5-5-5-7--7-7-7-7-|--8--8-8-8-8S-10-10-10S-11-11-11-|
|--5--5-5-5-5-7--7-7-7-7-|--8--8-8-8-8S-10-10-10S-11-11-11-|


                                        PM PM PM PM PM PM
   E  S S S S E  S S S S    E  S S S S  S  S  S  S  S  S
|------------------------|-------------------------------|
|------------------------|-------------------------------|
|------------------------|-------------------------------|
|------------------------|-------------------------------|
|--5--5-5-5-5-7--7-7-7-7-|--8--8-8-8-8-11-11-11-11-11-11-|
|--5--5-5-5-5-7--7-7-7-7-|--8--8-8-8-8-11-11-11-11-11-11-|

 3/8
    PM PM PM PMPM PM
    S  S  S  S S  S
|--------------------|
|--------------------|
|--------------------|
|--------------------|
|--11-11-11-11-0--0--|
|--11-11-11-11-0--0--|

	Chorus
 6/8

   S E  E  S E  E  E     S E  E  S E  E  E
|---------------------|------------------------- |  \
|---------------------|---------------------| -- |
|---------------------|---------------------| -- |
|---------------------|---------------------| -- |
|--5-5--5--5-5--5--5--|--4-4--4--4-4--4--4--| -- |
|--5-5--5--5-5--5--5--|--4-4--4--4-4--4--4--| -- |
					       |
  					       |x4
   S E  E  S E  E  E     S E  E  S S E  E  S   |
|---------------------|----------------------|-- |
|---------------------|----------------------|-- |
|---------------------|----------------------|-- |
|---------------------|----------------------|-- |
|--3-3--3--3-3--3--3--|--1-1--1--1-3-3--3--3-|-- |
|--3-3--3--3-3--3--3--|--1-1--1--1-3-3--3--3---- | /

  H.
|---------------|
|---------------|
|---------------|
|-6-------------|
|-5-------------|
|-0-------------|

	Verse 2

      PM PM       PM PM          PM PM       PM PM
   E  S  S  E  E  S  S  E     E  S  S  E  E  S  S  E
|--------------------------|--------------------------|
|--------------------------|--------------------------|
|--7--------7--6--------6--|--7--------7--8--------8--|
|--x--------x--x--------x--|--x--------x--x--------x--| x2
|--5--0--0--5--4--0--0--4--|--5--0--0--5--6--0--0--6--|
|--0--0--0--0--0--0--0--0--|--0--0--0--0--0--0--0--0--|

        PM PM       PM PM             PM PM       PM PM
     E  S  S  E  E  S  S  E        E  S  S  E  E  S  S  E
|--/10--------------------4---|--/10--------------------4--|
|--/10--------------------4---|--/10--------------------4--|
|---/8--------------------2---|---/8--------------------2--|
|----0--------------------0---|----0--------------------0--| x2
|----0--0--0--0--0--0--0--0---|----0--0--0--0--0--0--0--0--|
|----0--0--0--0--0--0--0--0---|----0--0--0--0--0--0--0--0--|


	Pre-Chorus

   E  S S S S E  S S S S    E  S S S S   S  S  S   S  S  S
|------------------------|---------------------------------|
|------------------------|---------------------------------|
|------------------------|---------------------------------|
|------------------------|---------------------------------|
|--5--5-5-5-5-7--7-7-7-7-|--8--8-8-8-8S-10-10-10S-11-11-11-|
|--5--5-5-5-5-7--7-7-7-7-|--8--8-8-8-8S-10-10-10S-11-11-11-|


                                         PM PM PM PM PM PM
   E  S S S S E  S S S S    E  S S S S   S  S  S  S  S  S
|------------------------|--------------------------------|
|------------------------|--------------------------------|
|------------------------|--------------------------------|
|------------------------|--------------------------------|
|--5--5-5-5-5-7--7-7-7-7-|--8--8-8-8-8S-11-11-11-11-11-11-|
|--5--5-5-5-5-7--7-7-7-7-|--8--8-8-8-8S-11-11-11-11-11-11-|

 3/8
    PM PM PM PMPM PM
    S  S  S  S S  S
|--------------------|
|--------------------|
|--------------------|
|--------------------|
|--11-11-11-11-0--0--|
|--11-11-11-11-0--0--|

	Chorus
 6/8

   S E  E  S E  E  E     S E  E  S E  E  E
|---------------------|------------------------- |  \
|---------------------|---------------------| -- |
|---------------------|---------------------| -- |
|---------------------|---------------------| -- |
|--5-5--5--5-5--5--5--|--4-4--4--4-4--4--4--| -- |
|--5-5--5--5-5--5--5--|--4-4--4--4-4--4--4--| -- |
					       |
  					       |x4
   S E  E  S E  E  E     S E  E  S S E  E  S   |
|---------------------|----------------------|-- |
|---------------------|----------------------|-- |
|---------------------|----------------------|-- |
|---------------------|----------------------|-- |
|--3-3--3--3-3--3--3--|--1-1--1--1-3-3--3--3-|-- |
|--3-3--3--3-3--3--3--|--1-1--1--1-3-3--3--3---- | /


	Interlude
 (Clean)

   S S S S S S S S S S S S    S S S S S S S S S S S S	\
|--------------------------|--------------------------|	|
|--------0-----------0-----|--------0-----------0-----|	|
|----9-------9---9-------9-|----5-------5---5-------5-|	|
|--7---7---7---7---7---7---|--7---7---7---7---7---7---|	|
|--------------------------|--------------------------|	|
|--------------------------|--------------------------|	|
							|
							|
   S S S S S S S S S S S S    S S S S S S S S S S S S	|
|--------------------------|--------------------------|	|
|--------0-----------0-----|--------0-----------0-----|	|
|----9-------9---9-------9-|----10------10--10------10|	|
|--10--10--10--10--10--10--|--9---9---9---9---9---9---|	|
|--------------------------|--------------------------|	|
|--------------------------|--------------------------|	|
							|
							| x2
   S S S S S S S S S S S S    S S S S S S S S S S S S	|
|--------------------------|--------------------------|	|
|--------0-----------0-----|--------0-----------0-----|	|
|----7-------7---7-------7-|----7-------7---7-------7-|	|
|--5---5---5---5---5---5---|--4---4---4---4---4---4---|	|
|--------------------------|--------------------------|	|
|--------------------------|--------------------------|	|
							|
							|
   S S S S S S S S S S S S    S S S S S S S S S S S S	|
|--------------------------|--------------------------|   -- |
|--------0-----------0-----|--------0-----------0-----|   -- |
|----5-------5---5-------5-|----4-------4---5-------5-|   -- |
|--3---3---3---3---3---3---|--2---2---2---3---3---3---|   -- |
|--------------------------|--------------------------|   -- |
|--------------------------|-------------------------------- |    /


	Breakdown
(Distortion)

      PM PM PM PM    PM PM PM PM         PM PM PM PM
   E  S  S  S  S  E  S  S  S  S      E   S  S  S  S  E   E  E 	\
|--------------------------------|-----------------------------||
|--------------------------------|-----------------------------||
|--------------------------------|-----------------------------||
|--7--------------7--------------|---7--------------10--10--9--||
|--7--7--7--7--7--8--8--8--8--8--|--10--10-10-10-10-10--10--9--||
|--7--7--7--7--7--7--7--7--7--7--|---7--7--7--7--7--10--10--9--||
								|
      PM PM PM PM    PM PM PM PM         PM PM PM PM		| x2
   E  S  S  S  S  E  S  S  S  S      E   S  S  S  S  E   E  E	|
|--------------------------------|------------------------------- |
|--------------------------------|------------------------------- |
|--------------------------------|------------------------------- |
|--7--------------7--------------|---7--------------10--10--12--- |
|--7--7--7--7--7--8--8--8--8--8--|--10--10-10-10-10-10--10--12--- |
|--7--7--7--7--7--7--7--7--7--7--|---7--7--7--7--7--10--10--12--- |

      PM PM PM PM    PM PM PM PM         PM PM PM PM		  \
   E  S  S  S  S  E  S  S  S  S      E   S  S  S  S  E   E  E	  |
|--------------------------------|-----------------------------|  |
|--------------------------------|-----------------------------|  |
|--------------------------------|-----------------------------|  |
|--7--------------7--------------|---7--------------10--10--9--|  |
|--7--7--7--7--7--8--8--8--8--8--|--10--10-10-10-10-10--10--9--|  |
|--7--7--7--7--7--7--7--7--7--7--|---7--7--7--7--7--10--10--9--|  |
								  | x2
      PM PM PM PM    PM PM PM PM         PM PM PM PM		  |
   E  S  S  S  S  E  S  S  S  S      E   S  S  S  S  E   E   E	  |
|--------------------------------|------------------------------|-- |
|--------------------------------|------------------------------|-- |
|--------------------------------|------------------------------|-- |
|--7--------------7--------------|---7---------------8---8---8--|-- |
|--7--7--7--7--7--8--8--8--8--8--|--10--10-10-10-10--8---8---8--|-- |
|--7--7--7--7--7--7--7--7--7--7--|---7--7--7--7--7---8---8---8----- | /


	Interlude II
 (Clean)

   Q.     E  E  E     Q.     E  E  E
|------------------|------------------|
|------------------|------------------|
|---------5-----5--|---------5-----5--|
|--7---------7-----|--6---------6-----|
|------------------|------------------|
|------------------|------------------|


   Q.     E  E  E     E  E  E   E   E  E
|------------------|----------------------|
|------------------|----------------------|
|---------4-----4--|-----2----------4-----|
|--5---------5-----|--3-----3--3s5-----5--|
|------------------|----------------------|
|------------------|----------------------|

   Q.     E  E  E     Q.     E  E  E
|------------------|------------------|
|------------------|------------------|
|---------5--------|---------5--------|
|------------7-----|------------6-----|
|------------------|------------------|
|--7------------7--|--6------------6--|

   Q.     E  E  E     E  E  E  E  E  E
|------------------|--------------------|
|------------------|--------------------|
|---------4--------|--------2--------4--|
|------------5-----|-----3--------5-----|
|------------------|--------------------|
|--5------------5--|--3--------5--------|

	Final Chorus
 (Distortion)

   S E  E  S E  E  E     S E  E  S E  E  E 	\
|---------------------|---------------------|	|
|---------------------|---------------------|	|
|---------------------|---------------------|	|
|---------------------|---------------------|	|
|--5-5--5--5-5--5--5--|--4-4--4--4-4--4--4--|	|
|--5-5--5--5-5--5--5--|--4-4--4--4-4--4--4--|	|
						|
						| x2
   S E  E  S E  E  E     S E  E  S S E  E  S	|
|---------------------|----------------------|   -- |
|---------------------|----------------------|   -- |
|---------------------|----------------------|   -- |
|---------------------|----------------------|   -- |
|--3-3--3--3-3--3--3--|--1-1--1--1-3-3--3--3-|   -- |
|--3-3--3--3-3--3--3--|--1-1--1--1-3-3--3--3------- |    /

      PM PM PM PM    PM PM PM PM       PM PM PM PM    PM PM PM PM
   E  S  S  S  S  E  S  S  S  S     E  S  S  S  S  E  S  S  S  S
|--------------------------------|--------------------------------|
|--------------------------------|--------------------------------|
|--------------------------------|--------------------------------|
|--------------------------------|--------------------------------|
|--5--5--5--5--5--5--5--5--5--5--|--4--4--4--4--4--4--4--4--4--4--|
|--5--5--5--5--5--5--5--5--5--5--|--4--4--4--4--4--4--4--4--4--4--|


      PM PM PM PM    PM PM PM PM
   E  S  S  S  S  E  S  S  S  S     S E  E  S S E  E  S
|--------------------------------|----------------------|
|--------------------------------|----------------------|
|--------------------------------|----------------------|
|--------------------------------|----------------------|
|--3--3--3--3--3--3--3--3--3--3--|--1-1--1--1-3-3--3--3-|
|--3--3--3--3--3--3--3--3--3--3--|--1-1--1--1-3-3--3--3-|


      PM PM PM PM                PM PM PM PM
   E  S  S  S  S  E  E  E     E  S  S  S  S  E  E  E
|--------------------------|--------------------------|
|--------------------------|--------------------------|
|--------------------------|--------------------------|
|--------------------------|--------------------------|
|--5--5--5--5--5--5--5--5--|--4--4--4--4--4--4--4--4--|
|--5--5--5--5--5--5--5--5--|--4--4--4--4--4--4--4--4--|


      PM PM PM PM                                  Fade Out
   E  S  S  S  S  E  E  E     E  E  E  E  E  E     H.
|--------------------------|--------------------|---------------|
|--------------------------|--------------------|---------------|
|--------------------------|--------------------|---------------|
|--------------------------|--------------------|--6------------|
|--3--3--3--3--3--3--3--3--|--1--1--1--3--3--3--|--5------------|
|--3--3--3--3--3--3--3--3--|--1--1--1--3--3--3--|--0------------|


Duration Legend
---------------
W - whole
H - half
Q - quarter
E - 8th
S - 16th

Tablature Legend
----------------
s -  legato slide
/ -  slide into from below or out of upwards
Добавлено: 24.03.2012
Другие материалы по этой песне:

Страница создана 24.03.2012
http://primanota.ru/dog-fashion-disco/sweet-insanity-chords.htm
Привет, Гость.
Предлагаем пройти революционный курс по гитаре.
Подарок от PrimaNota.Ru, забирай!