PrimaNota.ru - самый крупный в мире бесплатный архив песенных текстов, аккордов, табулатур и нот


Dog Fashion Disco - Rapest Eyes - таба, видео

Регистрация Запомнить меня
Войти через:  Facebook Google Twitter Vk Yandex Mail.ru

Dog Fashion Disco - Rapest Eyes - таба, видео

Печатать
Просмотров: 198
Уроки эстрадного вокала в Санкт-Петербурге
----------------------------------------------------------------------------
                             Rapest Eyes - Dog Fashion Disco
----------------------------------------------------------------------------
Tabbed by:kenvyn123
Email:kenvyn4@hotmail.com

Tuning:standard

3/4 Timing

Feel Free to make corrections or comment, thanks.

Verse:x4 
e|-------------------------|
B|-------------------------|
G|-------------------------|
D|-------------------------|
A|-------8-7-4-3-2---3-2-5-|
E|-0-1-4-----------3-------|

Riff 1:x8 
e|-0----|
B|-5-4-1|
G|------|
D|------|
A|------|
E|------|

Verse:X4

Bridge:(the Bass Plays on the 1st beat of the bar and the guitar plays on the 2nd and 3rd.)
e|---------------------|
B|---------------------|
G|---------------------|
D|-4-4--4-4--7-7--7-6--|
A|-4-4--4-4--7-7------9|
E|-2-2--2-2--5-5-------|

Pre chorus:
e|------------------------|   |--------------------------------------|
B|------------------------|   |--------------------------------------|
G|-------7-----6-----6----|   |-------7-----6-----6-----6-----6------|
D|-5-4-5---8-5---7-4---7-4|X3 |-5-4-5---8-5---7-4---7-4---7-4---7-4-4|
A|------------------------|   |--------------------------------------|
E|------------------------|   |--------------------------------------|

Chorus:4/4(listen to get the rhythm)
e|--------|-----------------------|--------|-----------------------|
B|--------|-----------------------|--------|-----------------------|
G|--------|-----------------------|--------|-----------------------|
D|-9-9-9-9|-4-4-4-4--4--4-4-4-4--4|-2-2-2-2|-4-4-4-4--4--4-4-4-4--4|
A|-9-9-9-9|-4-4-4-4--4--4-4-4-4--4|-2-2-2-2|-4-4-4-4--4--4-4-4-4--4|
E|-7-7-7-7|-2-2-2-2--2--2-2-2-2--2|-0-0-0-0|-2-2-2-2--2--2-2-2-2--2|
           pm------|   pm------|           pm-------|   pm------|

e|--------|-----------------------|--------|------------|
B|--------|-----------------------|--------|------------|
G|-9-9-9-9|-----------------------|--------|------------|
D|-9-9-9-9|-4-4-4-4--4--4-4-4-4--4|-9-9-9-9|-4----------|
A|-7-7-7-7|-4-4-4-4--4--4-4-4-4--4|-9-9-9-9|-4----------|
E|--------|-2-2-2-2--2--2-2-2-2--2|-7-7-7-7|-2----------|
          Pm------|   pm-------|

post chorus:
e|-----------------|
B|-----------------|
G|-11-10-7--9-7-9-7|X8 2 bar break then X8
D|-11-10-7--9-7-9-7|
A|-9--8--5--7-5-7-5|
E|-----------------|

Riff 2
e|-0----|------|------|-------------|
B|-5-4-1|------|------|-------------|
G|------|------|------|-5-4-2-------|
D|------|------|------|-------4-----|
A|------|------|-9----|---------2-0-|
E|------|-2-5-9|---5-8|-------------|

Bridge:

Pre Chorus:

Chorus:
e|--------|-----------------------|--------|-----------------------|
B|--------|-----------------------|--------|-----------------------|
G|--------|-----------------------|--------|-----------------------|
D|-9-9-9-9|-4-4-4-4--4--4-4-4-4--4|-2-2-2-2|-4-4-4-4--4--4-4-4-4--4|
A|-9-9-9-9|-4-4-4-4--4--4-4-4-4--4|-2-2-2-2|-4-4-4-4--4--4-4-4-4--4|
E|-7-7-7-7|-2-2-2-2--2--2-2-2-2--2|-0-0-0-0|-2-2-2-2--2--2-2-2-2--2|
           pm------|   pm------|           pm-------|   pm------|

e|--------|-----------------------|--------|-----------------------|
B|--------|-----------------------|--------|-----------------------|
G|-9-9-9-9|-----------------------|--------|-----------------------|
D|-9-9-9-9|-4-4-4-4--4--4-4-4-4--4|-9-9-9-9|-4-4-4-4--4--4-4-4-4-4-|
A|-7-7-7-7|-4-4-4-4--4--4-4-4-4--4|-9-9-9-9|-4-4-4-4--4--4-4-4-4-4-|
E|--------|-2-2-2-2--2--2-2-2-2--2|-7-7-7-7|-2-2-2-2--2--2-2-2-2-2-|
          Pm------|   pm-------|            pm------|  pm-------|

e|--------|-----------------------|--------|------------|
B|--------|-----------------------|--------|------------|
G|-9-9-9-9|-----------------------|--------|------------|
D|-9-9-9-9|-4-4-4-4--4--4-4-4-4--4|-9-9-9-9|-4----------|
A|-7-7-7-7|-4-4-4-4--4--4-4-4-4--4|-9-9-9-9|-4----------|
E|--------|-2-2-2-2--2--2-2-2-2--2|-7-7-7-7|-2----------|
          Pm------|   pm-------|

| /  slide up
| \  slide down
| h  hammer-on
| p  pull-off
| ~  vibrato
| +  harmonic
| x  Mute note
============================================================================
Добавлено: 16.05.2012
Другие материалы по этой песне:
  • Аккорды и текст

Страница создана 16.05.2012
http://primanota.ru/dog-fashion-disco/rapest-eyes-chords.htm
Привет, Гость.
Предлагаем пройти революционный курс по гитаре.
Подарок от PrimaNota.Ru, забирай!