PrimaNota.ru - самый крупный в мире бесплатный архив песенных текстов, аккордов, табулатур и нот


Dog Fashion Disco - Pogo The Clown - текст песни, бас-таба, видео

Регистрация Запомнить меня
Войти через:  Facebook Google Twitter Vk Yandex Mail.ru

Dog Fashion Disco - Pogo The Clown - текст песни, бас-таба, видео

Печатать
Просмотров: 293
I've had problems finding tabs for this song, so I've made an attempt to tab it myself. 
done the intro, and the first line of the verse. And a short solo - listen to the song, 
you'll recognize it.

The song is played pretty fast, but it's really not difficult.

.= Short stop/rest

Intro:
G-----------------------|--------------------|
D---------------1---1h3-|--------------------|
A-----1---1h2h3---3-----|-----1---3--2-1-----|
E-1-4---4---------------|-1-4---4--1-----4---|

G-----------------------|--------------------|
D---------------1---1h3-|--------------------|
A-----1---1h2h3---3-----|-----1---3.2.1~-----|
E-1-4---4---------------|-1-4---4------4-1-4-|


Verse:
"Pogo happy clown molester..."
G-----------------------|-->?----------------|
D---------3---1---------|-->?----------------|
A---3-1-3---1-----------|-->?----------------|
E-1---------------------|-->?----------------|


Solo right before: "whooooa, the end is near":
G-------------------1---0-1---------------|
D-----------1---1-3---3-----1-3------3-1--|
A-----1-2-3---3-----------------2-3-----3-|
E-1-4-------------------------------------|
Добавлено: 12.06.2012
Другие материалы по этой песне:
  • Аккорды и текст

Страница создана 19.04.2012
http://primanota.ru/dog-fashion-disco/pogo-the-clown-chords.htm
Привет, Гость.
Предлагаем пройти революционный курс по гитаре.
Подарок от PrimaNota.Ru, забирай!