PrimaNota.ru - самый крупный в мире бесплатный архив песенных текстов, аккордов, табулатур и нот


Dog Fashion Disco - Nude In The Wilderness - текст песни, таба, видео

Регистрация Запомнить меня
Войти через:  Facebook Google Twitter Vk Yandex Mail.ru

Dog Fashion Disco - Nude In The Wilderness - текст песни, таба, видео

Печатать
Просмотров: 141
Уроки эстрадного вокала в Санкт-Петербурге
Nude In The Wilderness
 Dog Fashion Disco
  Committed To A Bright Future


Another awesome song from DFD's best album.
Comment, PM me, or e-mail me with questions or comments.
iamnotiangibson@aol.com

Also I'd like to give credit to john1645@msu.edu
for the verse riffs.

Drop D Tuning - (D A D G B E)

112bpm
12/8

Intro/Chorus Riff
Distorted
     S S S S S S S S S S S S  
E||--------------------------|
B||--------------------------|
G||--------------------------|
D||--9-9-9-9-9-9-9-9-9-9-9-9-|
A||--9-9-9-9-9-9-9-9-9-9-9-9-|
D||--9-9-9-9-9-9-9-9-9-9-9-9-|


   S S S S S S  S  S  S S S S  
|-----------------------------|
|-----------------------------|
|-----------------------------|
|--9-9-9-9-9-9-12-12-12-9-9-9-|
|--9-9-9-9-9-9-12-12-12-9-9-9-|
|--9-9-9-9-9-9-12-12-12-9-9-9-|


    S  S  S  S  S  S  S  S  S  S  S  S  
|--------------------------------------|
|--------------------------------------|
|--------------------------------------|
|--10-10-10-10-10-10-10-10-10-10-10-10-|
|--10-10-10-10-10-10-10-10-10-10-10-10-|
|--10-10-10-10-10-10-10-10-10-10-10-10-|


    S  S  S  S  S  S  S  S  S  S  S  S  
|--------------------------------------|
|--------------------------------------|
|--------------------------------------|
|--14-14-14-12-12-12-10-10-10-12-12-12-|
|--14-14-14-12-12-12-10-10-10-12-12-12-|
|--14-14-14-12-12-12-10-10-10-12-12-12-|

Verse 

Riff 1
Clean
   E  S E  S E.  E  S    H.            
|---------------------|---------------|
|---------------------|---------------|
|----------------2----|---------------|
|-------2--3-4------4-|--L------------|
|--2--5---------------|---------------|
|---------------------|---------------|		\
						x2
							/
   E  S E  S Q.        H.            
|-------------------|---------------|
|-------------------|---------------|
|-------------------|---------------|
|--2--0-------------|---------------|
|-------2-----------|---------------|
|----------0-2------|--L------------|

Riff 2
   E  S E  S E.  E  S    E  H        E   
|---------------------|-----------------|
|---------------------|-----------------|
|----------------2----|-----4--------L--|
|-------2--3-4------4-|--L--------------|
|--2--5---------------|-----------------|
|---------------------|-----------------|
						\
						x2
   E  S E  S Q.        H.            			/
|-------------------|---------------|
|-------------------|---------------|
|-------------------|---------------|
|--2--0-------------|---------------|
|-------2-----------|---------------|
|----------0-2------|--L------------|


Chorus Riff x3 (3rd time PM)
Distortion


Post-Chorus Riff
   E.  E.  E  E.  S    H.              H.            
|-------------------|---------------|---------------|
|-------------------|---------------|---------------|
|-------------------|---------------|--7------------|
|--9---7---4--7---2-|--L------------|--7------------|
|--9---7---4--7---2-|--L------------|--5------------|
|--9---7---4--7---2-|--L------------|--0------------|


   H.              S S S S S S S S S S S S  
|---------------|--------------------------|
|---------------|--------------------------|
|--L------------|--------------------------|
|--L------------|--9-9-9-9-9-9-9-9-9-9-9-9-|
|--L------------|--9-9-9-9-9-9-9-9-9-9-9-9-|
|--L------------|--9-9-9-9-9-9-9-9-9-9-9-9-|


   S S S S S S  S  S  S S S S  
|-----------------------------|
|-----------------------------|
|-----------------------------|
|--9-9-9-9-9-9-12-12-12-9-9-9-|
|--9-9-9-9-9-9-12-12-12-9-9-9-|
|--9-9-9-9-9-9-12-12-12-9-9-9-|


    S  S  S  S  S  S  S  S  S  S  S  S  
|--------------------------------------|
|--------------------------------------|
|--------------------------------------|
|--10-10-10-10-10-10-10-10-10-10-10-10-|
|--10-10-10-10-10-10-10-10-10-10-10-10-|
|--10-10-10-10-10-10-10-10-10-10-10-10-|


    S  S  S  S  S  S  S  S  S  S  S  S  
|--------------------------------------|
|--------------------------------------|
|--------------------------------------|
|--14-14-14-12-12-12-10-10-10-12-12-12-|
|--14-14-14-12-12-12-10-10-10-12-12-12-|
|--14-14-14-12-12-12-10-10-10-12-12-12-|


Verse Riff 1 x2
Clean

Verse Riff 2 x2


Chorus Riff x3 (3rd time PM)
Distortion

Post-Chorus Riff (Shortened)
   E.  E.  E  E.  S    H.              H.            
|-------------------|---------------|---------------|
|-------------------|---------------|---------------|
|-------------------|---------------|--7------------|
|--9---7---4--7---2-|--L------------|--7------------|
|--9---7---4--7---2-|--L------------|--5------------|
|--9---7---4--7---2-|--L------------|--0------------|

   H.
|---------------|
|---------------|
|--L------------|
|--L------------|
|--L------------|
|--L------------|


Bridge

Riff 1
   E.  E.  E.  E.     E.  E.  E.  E.   
|------------------|------------------|
|------------------|------------------|
|--4---4---4---4---|--4---4---4---4---|
|--x---x---x---x---|--x---x---x---x---|
|--2---2---2---2---|--2---2---2---2---|
|------------------|------------------|


   E.  E.  E.  E.     E.  E.  E.  E.   
|------------------|------------------|
|------------------|------------------|
|--5---5---5---5---|--5---5---5---7---|
|--x---x---x---x---|--x---x---x---x---|
|--3---3---3---3---|--3---3---3---5---|
|------------------|------------------|


Riff 2					   x8
   E.  E  S E  S E  S    E.  E.  E  S E  S  
|---------------------|--------------------|
|---------------------|--------------------|
|---------------------|--------------------|
|--9---9--7-9--7-9--2-|--L---4---7--4-7--8-|
|--9---9--7-9--7-9--2-|--L---4---7--4-7--8-|
|--9---9--7-9--7-9--2-|--L---4---7--4-7--8-|


Post-Bridge  (2nd time add an extra measure at the end)
   E.  E.  E  E.  S    H.              H.            
|-------------------|---------------|---------------|
|-------------------|---------------|---------------|
|-------------------|---------------|--7------------|
|--9---7---4--7---2-|--L------------|--7------------|
|--9---7---4--7---2-|--L------------|--5------------|
|--9---7---4--7---2-|--L------------|--0------------|
							\
							x2
   H.            						/
|---------------|
|---------------|
|--L------------|
|--L------------|
|--L------------|
|--L------------|


Chorus Riff x3 (3rd time PM)


Outro
   E.  E.  E  E.  S    H.            
|-------------------|---------------|
|-------------------|---------------|
|-------------------|---------------|
|--9---7---4--7---2-|--L------------|
|--9---7---4--7---2-|--L------------|
|--9---7---4--7---2-|--L------------|


   E.  E.  E  E.  S    H.            
|-------------------|---------------|
|-------------------|---------------|
|-------------------|---------------|
|--9---7---4--7---2-|--L------------|
|--9---7---4--7---2-|--L------------|
|--9---7---4--7---2-|--L------------|


   E.  E.  E  E.  S    H.             
|-------------------|---------------||
|-------------------|---------------||
|-------------------|---------------||
|--0---4---2--7---9-|--L------------||
|--0---4---2--7---9-|--L------------||
|--0---4---2--7---9-|--L------------||




Duration Legend
---------------
W - whole
H - half
Q - quarter
E - 8th
S - 16th
. - note dotted



Tablature Legend
----------------
L - tied note
Добавлено: 02.07.2012
Другие материалы по этой песне:
  • Аккорды и текст

Страница создана 22.05.2012
http://primanota.ru/dog-fashion-disco/nude-in-the-wilderness-chords.htm
Привет, Гость.
Предлагаем пройти революционный курс по гитаре.
Подарок от PrimaNota.Ru, забирай!