PrimaNota.ru - самый крупный в мире бесплатный архив песенных текстов, аккордов, табулатур и нот


Dog Fashion Disco - Mushroom Cult - текст песни, таба, видео

Регистрация Запомнить меня
Войти через:  Facebook Google Twitter Vk Yandex Mail.ru

Dog Fashion Disco - Mushroom Cult - текст песни, таба, видео

Печатать
Просмотров: 151
Уроки эстрадного вокала в Санкт-Петербурге
This is a great song, featuring Serj from System of a Down on lead vocals
This song is about some religious crab. It has lots of lovley by hugley difficult riffs, enjoy

Gtrs I, II (C G C F A D) - Distorted
Gtr III (D G C F A D) - Clean (left speaker)
Gtr IV (D G C F A D) - Clean (right speaker)


 Intro:
 Gtrs I, II
 4/4                                 9/8
    E   E   E   E   E   E   E   E     E   E   E    E   E   E   E   E   E    4x
||----------------------------------|-------------------------------------||
||o---------------------------------|-------------------------------------||
||----------------------------------|-------------------------------------||
||----------5-------7---------------|-------------------------------------||
||o-5---7---------------7---5---7---|-6---7---9---10-------8-------8---7-o||
||--5---7-------7---------------7---|-6---7---9--------9-------9---8---7--||


 17/16
  e   e   e   S S S e   e   e   S S   e   e   e   S S S e   e   e   S S
|-----------------------------------|-----------------------------------|
|-8---8---8---8-8-8-8---8---8---8-8-|-8---8---8---8-8-8-8---8---8---8-8-|
|-6---6---6---6-6-6-6---6---6---6-6-|-6---6---6---6-6-6-6---6---6---6-6-|
|-----------------------------------|-----------------------------------|
|-----------------------------------|-----------------------------------|
|-----------------------------------|-----------------------------------|




 1st Verse:
 3/4
 Gtr III
    E   S S S S E   S S S S   E   S S S S E   S S S S  3x
||--------------------------|--------------------------||
||o-------------------------|-------------------------o||
||--------------------------|--------------------------||
||--------------------------|--------------------------||
||o-------------------------|-------------------------o||
||--0---3-3h5-3-0---3-3h5-0-|-0---3-3h5-3-0---3-3h5-0--||
|
|Gtr IV
|   E   S S S S E   S S S S   E   S S S S E   S S S S  3x
||--------------------------|--------------------------||
||o-------------------------|-------------------------o||
||--------------------------|--------------------------||
||--------------------------|---------------------0-2--||
||o-------------------------|-------------------2-----o||
||--0---3-3h5-3-0---3-3h5-0-|-0---3-3h5-3-0---3--------||
...kaleidoscope of love...


  E   S S S S E   S S S S   E   S S S S E   S S S S
|-------------------------|-------------------------|
|-------------------------|-------------------------|
|-------------------------|-------------------------|
|-------------------------|-------------------------|
|-------------------------|-------------------------|
|-0---3-3h5-3-0---3-3h5-0-|-0---3-3h5-3-0---3-3h5-0-|
|
| E   S S S S E   S S S S   E   S S S S E   S S S S
|-------------------------|-------------------------|
|-------------------------|-------------------------|
|-------------------------|-----------------------5-|
|-------------------------|-----------7-6-----6-7---|
|-------------------------|-----------------7-------|
|-0---3-3h5-3-0---3-3h5-0-|-0---3-3h5---------------|




 Pre-Chorus:
 Gtrs I, II
                                                        1.,2.,3.
  3/4                                                   3/8
    e.    e.    e.    e.       E.    e.    e.    E   S   e.    e.
||--------------------------|--------------------------|--------------||
||o-------------------------|--------------------------|-------------o||
||--7-----7-----7-----7-----|-10-----7-----7-----------|--------------||
||--7-----7-----7-----7-----|-10-----7-----7-----------|-6-----6------||
||o-5-----5-----5-----5-----|--8-----5-----5-----8---7-|-6-----6-----o||
||--------------------------|--------------------8---7-|-6-----6------||
...floating in a mushroom universe...


 4.
 3/4
  e.    e.    e.    e.      S S S S S S S S S S S S
|-------------------------|-------------------------|
|-------------------------|-------------------------|
|-------------------------|-------------------------|
|-6-----6-----6-----6-----|-6-6-6-6-6-6-6-6-6-6-6-6-|
|-6-----6-----6-----6-----|-6-6-6-6-6-6-6-6-6-6-6-6-|
|-6-----6-----6-----6-----|-6-6-6-6-6-6-6-6-6-6-6-6-|




 Chorus:
 3/4
 Gtrs I, II
                      PM--|                           PM--|
    E   S E.    E   S S S S   a  E   S E.     E    S  S S S
||--------------------------|--------------------------------||
||o-------------------------|-------------------------------o||
||--------------------------|--------------------------------||
||--4---3-------4---7-------|-7s10---7-------10---13---------||
||o-4---3-------4---7-------|-7s10---7-------10---13--------o||
||--4---3-------4---7-4-3-1-|-7s10---7-------10---13-10-7-6--||


                                                       PM--|
    E   S E.    E   S E   S   a  E   S E.      E    S  S S S
||--------------------------|---------------------------------||
||o-------------------------|--------------------------------o||
||--------5-----------------|----------8~---------------------||
||--4---3-5-----4---7-4---3-|-7s10---7-8~-----10---13---------||
||o-4---3-3-----4---7-4---3-|-7s10---7-6~-----10---13--------o||
||--4---3-------4---7-4---3-|-7s10---7--------10---13-10-7-6--||
...I must be in limbo...




 2nd Verse:
similar to 1st Verse




 Pre-Chorus:
similar to previous




 Chorus:
similar to previous




 Bridge:
                                         1.
 9/8
    E.    E.    E.    E.    E.    E.      E.    E.    E.    S S S S S S  E.
||--------------------------------------|---------------------------------||
||o-------------------------------------|---------------------------------||
||--------------------------------------|-------------------8-7-7-8-7-7-10||
||--7-----------9-----7-----------9-----|-7-----------9-----x-x-x-x-x-x--x||
||o-7-----------9-----7-----------9-----|-7-----------9-----6-5-5-6-5-5--8||
||--7-----------9-----7-----------9-----|-7-----------9-------------------||


 2.
 9/16                3/8           2/4
  E.    E.    E.      S S S S S S    H
|-------------------|-------------|------------------|
|-------------------|-------------|------------------|
|-------------------|-8-7-7-8-6-6-|-10---------------|
|-7-----------9-----|-x-x-x-x-x-x-|--x---------------|
|-7-----------9-----|-6-5-5-6-5-5-|--8---------------|
|-7-----------9-----|-------------|------------------|



 4/4                                 3/4
                                                  PM|
    E   S S Q       E   S S Q         E   S S E   S S e   e
||----------------------------------|--------------------------||
||o---------------------------------|---------6-------6---6---o||
||----------------------------------|---------4-------4---4----||
||--4---7-6-5-------4---7-6-5-------|-4---7-6-4----------------||
||o-4---7-6-5-------4---7-6-5-------|-4---7-6-----------------o||
||--4---7-6-5-------4---7-6-5-------|-4---7-6-----6-5----------||
...inside the moon...


 4/4
    e   e   e   e   e   e   e   e     e   e   e   e   S S S S S S S S
||--6---6---6---6---6---6---6---6---|-6---6---6---6-----6-6-6---6-6-6--||
||o-6---6---6---6---6---6---6---6---|-6---6---6---6-----6-6-6---6-6-6-o||
||--4---4---4---4---4---4---4---4---|-4---4---4---4-----4-4-4---4-4-4--||
||----------------------------------|----------------------------------||
||o---------------------------------|---------------------------------o||
||----------------------------------|----------------------------------||


    PM|     PM|     PM|     PM|
    S S E   S S E   S S E   S S E    4x
||-----------------------------------||
||o---------------------------------o||
||-----------------------------------||
||------7-------6-------8-------7----||
||o---6-------8-------7-------6-----o||
||--7-------8-------6-------5--------||


    q       q       q       q        4x
||-----------------------------------||
||o---------------------------------o||
||-----------------------------------||
||--7-------6-------8-------7--------||
||o-6-------8-------7-------6-------o||
||--7-------8-------6-------5--------||


    PM|     PM|     PM|     PM|
    S S E   S S E   S S E   S S E    4x
||-----------------------------------||
||o---------------------------------o||
||-----------------------------------||
||------7-------6-------8-------7----||
||o---6-------8-------7-------6-----o||
||--7-------8-------6-------5--------||


 4/4                                 3/4
                                                   PM|
    E   S S Q       E   S S Q         E   S S  E   S S e   e    4x
||----------------------------------|---------------------------||
||o---------------------------------|------------------6---6---o||
||----------------------------------|---------10-------4---4----||
||--4---7-6-5-------4---7-6-5-------|-4---7-6--9----------------||
||o-4---7-6-5-------4---7-6-5-------|-4---7-6--9---------------o||
||--4---7-6-5-------4---7-6-5-------|-4---7-6------6-5----------||




 Outro:
 4/4                                 9/8
    E   E   E   E   E   E   E   E     E   E   E    E   E   E   E   E   E
||----------------------------------|---------------------------------------||
||o---------------------------------|--------------------------------------o||
||----------------------------------|---------------------------------------||
||----------5-------7---------------|---------------------------------------||
||o-5---7---------------7---5---7---|-6---7---9---10-------8-------8---7---o||
||--5---7-------7---------------7---|-6---7---9--------9-------9---8---7----||


 4/4
    E   E   E   E   E   E   E   E     E   E   E    E   E   E   E   E
||----------------------------------|-----------------------------------||
||o---------------------------------|----------------------------------o||
||----------------------------------|-----------------------------------||
||----------5-------7---------------|-----------------------------------||
||o-5---7---------------7---5---7---|-6---7---9---10-------8-------8---o||
||--5---7-------7---------------7---|-6---7---9--------9-------9---8----||


  q
|---------------------------------|
|---------------------------------|
|---------------------------------|
|-7\------------------------------|
|-7\------------------------------|
|-7\------------------------------|
Добавлено: 29.05.2012
Другие материалы по этой песне:

Страница создана 02.04.2012
http://primanota.ru/dog-fashion-disco/mushroom-cult-chords.htm
Привет, Гость.
Предлагаем пройти революционный курс по гитаре.
Подарок от PrimaNota.Ru, забирай!