PrimaNota.ru - самый крупный в мире бесплатный архив песенных текстов, аккордов, табулатур и нот


Dog Fashion Disco - Lookin For Love (Part One) - аккорды и текст, видео

Регистрация Запомнить меня
Войти через:  Facebook Google Twitter Vk Yandex Mail.ru

Dog Fashion Disco - Lookin For Love (Part One) - аккорды и текст, видео

Печатать
Просмотров: 145
Lookin For Love (Part One)
Dog Fashion Disco
Introdução: D F#* Bm G D A7 
D A# C*

D          F#*
I, I got a feeling
       Bm
Deeper emotion
           G*
I ain't the only one
            D    A7
Soak up the pain
               D  A# C*
Until it's gone


D                    F#*
Time where have you gone now
              Bm
Precious the moments
      G*
Sweet are the sounds
            D    A7
Soak up the pain
             D  A# C*
Until it's gone


D                   F#*
Time where have you gone now
                 Bm
Seems just like yesterday
  G*
Caught up with you
D   A7   D  A# C*
Up with you



D                        F#*
Some predict my heartache
Songs of love gone wrong
Bm
In the end it seems tragic
G*
But so appropriate, indeed
D
But nevertheless
A7             D
The end is fate


D
Barely alive
          F#*
Afraid of feelin'
          Bm
Pick me a partner
             G*
Find someone else to blame
             D   A7
Wallow with pain
           D  A# C*
Until it's gone


D                   F#*
Time where have you gone now
                 B
Seems just like yesterday
  G*
Caught up with you
D    A7  D  A# C*
Up with you
[x2]

On the song, the chords are played with arpeggios.
Some chords marked with an asterisk, should be made differently to be alike the original melody.

D (at the beginning)

E|---------2---------|
B|-------3---3-------|
G|-----2-------------|
D|---0----------0-0--|
A|-------------------|
E|-------------------|

F#*
E|---------0---------|
B|-------2---2-------|
G|-----3-------------|
D|-------------------|
A|-------------------|
E|--0-----------0-0--|

Bm
E|---------2---------|
B|-------3---3-------|
G|-----4-------------|
D|-------------------|
A|--------------2-2--|
E|-------------------|

G*

E|---------3-------3-|
B|-------3---3-----3-|
G|-----4-----------4-|
D|-----------------5-|
A|-----------------5-|
E|--3-----------3--3-|

D (at the end of the verse)

E|---------2---------|
B|-------3---3-------|
G|-----2-------------|
D|---0------------0--|
A|-------------------|
E|-------------------|

A7

E|---------0---------|
B|-------2---2-------|
G|-----0-------------|
D|-------------------|
A|---0------------0--|
E|-------------------|



At the end of the last verses,

A#

E|-------------------|
B|-------3-----------|
G|-------3-----------|
D|-----3-------------|
A|---1---------------|
E|-------------------|

C*

E|-------------------|
B|-------5-----------|
G|-------5-----------|
D|-----5-------------|
A|---3---------------|
E|-------------------|

The whole song is just that. If you know this song, you're one of the only who apreciate 
Dog Fashion Disco in it's whole extent!

Doubts and corrections:
boringcock@hotmail.com
Добавлено: 13.11.2013
Другие материалы по этой песне:
  • Аккорды и текст

Страница создана 27.06.2012
http://primanota.ru/dog-fashion-disco/lookin-for-love-part-one-chords.htm
Привет, Гость.
Предлагаем пройти революционный курс по гитаре.
Подарок от PrimaNota.Ru, забирай!