PrimaNota.ru - самый крупный в мире бесплатный архив песенных текстов, аккордов, табулатур и нот


Dog Fashion Disco - Grease - текст песни, таба, видео

Регистрация Запомнить меня
Войти через:  Facebook Google Twitter Vk Yandex Mail.ru

Dog Fashion Disco - Grease - текст песни, таба, видео

Печатать
Просмотров: 194
Авторы музыки: Barry Gibb
Авторы текста: Barry Gibb
Dog Fashion Disco - Grease
~~~~~~~~~~~~~~~~~~~~~~~~~~

Tabbed by: Simon Gabler

 ~ = let ring
 / = slide up
 \ = slide down
pm = mute with palm


E|-----|---------------------------------|--------------|
B|-----|---------------------------------|--------------|
G|-----|-----6/8------6----8\6---6-------|-8/9\8-6------|
D|-8~--|-6/8-6/8--6/8-6-8--8\6-8-6---4~--|-8/9\8-6--6/8-|
A|-8~--|-6/8-4/6--6/8-4-8--6\4-8-4---4~--|-6/7\6-4--6/8-|
D|-8~--|-6/8------6/8---8------8-----4~--|----------6/8-|


Clean guitar
E|-6--8----8----8~--|-8-6-----|-8----8~--|
B|-6--8-6--8-6--9~--|-8-6-4-6-|-8-6--9~--|
G|-6--8-6--8-6--8~--|-8-6-4-6-|-8-6--8~--|
D|-6--8-6--8-6--6~--|-8-6-4-6-|-8-6--6~--|
A|-4--6-4--6-4------|-6-4-2-4-|-6-4------|
D|------------------|---------|----------|



E|-----|--------------|
B|-----|--------------|
G|-----|-8/9\8-6------|
D|-4~--|-8/9\8-6--6/8-|
A|-4~--|-6/7\6-4--6/8-|
E|-4~--|----------6/8-|


Clean guitar
E|-6--8----8----8~--|-8--6-------|-8----8~--|
B|-6--8-6--8-6--9~--|-8--6--4--6-|-8-6--9~--|
G|-6--8-6--8-6--8~--|-8--6--4--6-|-8-6--8~--|
D|-6--8-6--8-6--6~--|-8--6--4--6-|-8-6--6~--|
A|-4--6-4--6-4------|-6--4--2--4-|-6-4------|
D|------------------|------------|----------|



E|---------------------------------|-------------|
B|---------------------------------|-------------|
G|-----6/8------6----8\6---6-------|-------------|
D|-6/8-6/8--6/8-6-8--8\6-8-6---4~--|-6/8-6-------|
A|-6/8-4/6--6/8-4-8--6\4-8-4---4~--|-------8-6-4-|
D|-6/8------6/8---8------8-----4~--|-------------|

E|---------------------------------|-----|
B|---------------------------------|-----|
G|-----6/8------6----8\6---6-------|-----|
D|-6/8-6/8--6/8-6-8--8\6-8-6---4~--|-6-3-|
A|-6/8-4/6--6/8-4-8--6\4-8-4---4~--|-6-3-|
E|-6/8------6/8---8------8-----4~--|-6-3-|


pm . . . . . .       . . . . . .       . . .
E|-----------------|-----------------|-----------------|
B|-----------------|-----------------|-----------------|
G|-----------------|-----------------|-----------------|
D|-4-4-4-4-4-4-4-4-|-3-3-3-3-3-3-3-3-|-4-4-4-4-4-4-4-4-|
A|-4-4-4-4-4-4-4-4-|-3-3-3-3-3-3-3-3-|-4-4-4-4-4-4-4-4-|
D|-4-4-4-4-4-4-4-4-|-3-3-3-3-3-3-3-3-|-4-4-4-4-4-4-4-4-|

E|-----------------|------------------|
B|-----------------|------------------|
G|-----------------|------------------|
D|-6-6-6-6-6-6-6-6-|-6/8-6--------6/8-|
A|-6-6-6-6-6-6-6-6-|-------8-6-4--6/8-|
D|-6-6-6-6-6-6-6-6-|--------------6/8-|


Clean guitar
E|-6--8----8----8~--|-8--6-------|-8----8~--|
B|-6--8-6--8-6--9~--|-8--6--4--6-|-8-6--9~--|
G|-6--8-6--8-6--8~--|-8--6--4--6-|-8-6--8~--|
D|-6--8-6--8-6--6~--|-8--6--4--6-|-8-6--6~--|
A|-4--6-4--6-4------|-6--4--2--4-|-6-4------|
D|------------------|------------|----------|



E|---------------------------------|-------------|
B|---------------------------------|-------------|
G|-----6/8------6----8\6---6-------|-------------|
D|-6/8-6/8--6/8-6-8--8\6-8-6---4~--|-6/8-6-------|
A|-6/8-4/6--6/8-4-8--6\4-8-4---4~--|-------8-6-4-|
D|-6/8------6/8---8------8-----4~--|-------------|

E|---------------------------------|------|
B|---------------------------------|------|
G|-----6/8------6----8\6---6-------|------|
D|-6/8-6/8--6/8-6-8--8\6-8-6---4~--|-6-8~-|
A|-6/8-4/6--6/8-4-8--6\4-8-4---4~--|-6-8~-|
D|-6/8------6/8---8------8-----4~--|-6-8~-|



E|-----|       |---------|
B|-----|       |---------|
G|-----| DRUMS |-8/9\8-6-|
D|-6/8-| ONLY  |-8/9\8-6-|
A|-6/8-|       |-6/7\6-4-|
D|-6/8-|       |---------|



E|---------------------------------|-------------|
B|---------------------------------|-------------|
G|-----6/8------6----8\6---6-------|-------------|
D|-6/8-6/8--6/8-6-8--8\6-8-6---4~--|-6/8-6-------|
A|-6/8-4/6--6/8-4-8--6\4-8-4---4~--|-------8-6-4-|
D|-6/8------6/8---8------8-----4~--|-------------|

E|---------------------------------|--------------|
B|---------------------------------|--------------|
G|-----6/8------6----8\6---6-------|--------------|
D|-6/8-6/8--6/8-6-8--8\6-8-6---4~--|-8-6----------|
A|-6/8-4/6--6/8-4-8--6\4-8-4---4~--|-----8-6-4-1~-|
D|-6/8------6/8---8------8-----4~--|--------------|


Greetings go out to my fellow bandmate "Oleg the barbarian".
Добавлено: 22.02.2012
Другие материалы по этой песне:
  • Аккорды и текст

Страница создана 22.02.2012
http://primanota.ru/dog-fashion-disco/grease-chords.htm
Привет, Гость.
Предлагаем пройти революционный курс по гитаре.
Подарок от PrimaNota.Ru, забирай!