PrimaNota.ru - самый крупный в мире бесплатный архив песенных текстов, аккордов, табулатур и нот


Dog Fashion Disco - 100 Suicides - текст песни, таба, видео

Регистрация Запомнить меня
Войти через:  Facebook Google Twitter Vk Yandex Mail.ru

Dog Fashion Disco - 100 Suicides - текст песни, таба, видео

Печатать
Просмотров: 159
100 Suicides
 Dog Fashion Disco
  Adultery


180 bpm
4/4

Intro Riff
Distortion
     E  E  E  Q     E  E  E     E  E  E  Q     E  E  E   
E||--------------------------|--------------------------|
B||--------------------------|--------------------------|
G||-----------9-----9--9--9--|-----------8-----8--8--8--|
D||-----------9-----9--9--9--|-----------8-----8--8--8--|
A||--7--6--7--7-----7--7--7--|--6--5--6--6-----6--6--6--|
D||--------------------------|--------------------------|
								\
								x2
   E  E  E  Q     E  E  E     Q.      Q.     Q     			/
|--------------------------|----------------------|
|--------------------------|----------------------|
|-----------7-----7--7--7--|----------------------|
|-----------7-----7--7--7--|--7------10------5----|
|--5--4--5--5-----5--5--5--|--7------10------5----|
|--------------------------|--7------10------5----|


Chorus Riff
   E  E  E  E  E  E  E   E     E  E  E  E  E  E  E  E   
|---------------------------|--------------------------|
|---------------------------|--------------------------|
|---------------------------|--------------------------|
|--7--7--7--7--7--7--7--10--|--6--6--6--6--5--5--5--5--|
|--7--7--7--7--7--7--7--10--|--6--6--6--6--5--5--5--5--|
|--7--7--7--7--7--7--7--10--|--6--6--6--6--5--5--5--5--|
								\
								x4
   E  E  E  E  E  E  E  E     Q    E  Q    E  Q     			/
|--------------------------|-----------------------|
|--------------------------|-----------------------|
|--5--5--5--5--5--5--5--5--|--8----8--7----7--5----|
|--5--5--5--5--5--5--5--5--|--8----8--7----7--5----|
|--3--3--3--3--3--3--3--3--|--6----6--5----5--3----|
|--------------------------|-----------------------|


Verse  (this is how he played it live in baltimore, i think it sounds different on the album)
Clean
    Q    Q     E   Q     E     E  Q     Q    E   E  E   
|---------------------------|--------------------------|
|---------------------------|--------------------------|
|--12-------------12-----9--|--L-----------------------|
|--13---------13--------10--|--L-------10-------10-----|
|---0----0---------------0--|--L--0----------0------0--|
|---------------------------|--------------------------|
								\
								x3
    Q    Q     E   Q    E     E  Q    Q    E  E  E   			/
|--------------------------|------------------------|
|--------------------------|------------------------|
|--11-------------11----8--|--L---------------------|
|--12---------12--------9--|--L-------9-------9-----|
|---0----0--------------0--|--L--0---------0-----0--|
|--------------------------|------------------------|

(4th time)
    Q    Q     E   Q     E     E  Q     Q    E   E  E   
|---------------------------|--------------------------|
|---------------------------|--------------------------|
|--12-------------12-----9--|--L-----------------------|
|--13---------13--------10--|--L-------10-------10-----|
|---0----0---------------0--|--L--0----------0------0--|
|---------------------------|--------------------------|

			     Distortion
                                 PM    PM    PM    PM  
    Q    Q     E   Q    E     E  E  E  E  E  E  E  E   
|--------------------------|--------------------------|
|--------------------------|--------------------------|
|--11-------------11----8--|--------------------------|
|--12---------12--------9--|-----7-----7-----6-----6--|
|---0----0--------------0--|-----7-----7-----6-----6--|
|--------------------------|-----7-----7-----6-----6--|


Chorus Riff x2


Bass Break

  W      x8
|-------|
|-------|
|-------|
|-------|
|-------|
|-------|


Verse 2  (similar to Verse 1)



Chorus Riff x4



Intro Riff x2


Jazz Band Thing	  (I'm not too good with chords, I'll try to fix it later)
Clean		
   E  E  E  E  E  E  E  E     E  E  E  E  E  E  E  E   
|--8--8-----8-----8-----8--|-----8-----8--------8--8--|
|--8--8-----8-----8-----8--|-----8-----8--------8--8--|
|--9--9-----9-----9-----9--|-----9-----9--------9--9--|
|--------------------------|--------------------------|
|--------------------------|--------------------------|
|--------------------------|--------------------------|
								\
								x4
   E  E  E  E  E  E  E  E      E   E  E   E  E   E  E   E   		/
|--5--5-----5-----5-----x--|---9---9------9------9------x--|
|--5--5-----5-----5-----x--|---9---9------9------9------x--|
|--6--6-----6-----6-----x--|--11--11-----11-----11------x--|
|--------------------------|-------------------------------|
|--------------------------|-------------------------------|
|--------------------------|-------------------------------|


Billy Idol Section 
  (let ring)
   E  E  E  Q     E  Q       W                 
|-----------0-------------|--L----------------|
|-----------------1-------|--L----------------|
|--------2-----------2----|--L----------------|
|-----2-------------------|--L----------------|
|--0----------------------|--L----------------|
|-------------------------|-------------------|
								\
								x4
   E  E  E  Q     Q.          E  E  E  Q     Q.       			/
|--------------------------|-------------------------|
|-----------1--------------|-----------0-------------|
|--------0--------0--------|--------0--------0-------|
|-----2--------------------|-----0-------------------|
|--3-----------------------|--2----------------------|
|--------------------------|-------------------------|



Intro Riff x2


Chorus Riff x4

Intro Riff x2

Last Note
   E  Q     Q    Q    E    
|------------------------||
|------------------------||
|------------------------||
|--7--L\-----------------||
|--7--L\-----------------||
|--7--L\-----------------||




Duration Legend
---------------
W - whole
H - half
Q - quarter
E - 8th
S - 16th
. - note dotted

Tablature Legend
----------------
L - tied note
x - dead note
Добавлено: 28.06.2012
Другие материалы по этой песне:
  • Аккорды и текст

Страница создана 07.04.2012
http://primanota.ru/dog-fashion-disco/100-suicides-chords.htm
Привет, Гость.
Предлагаем пройти революционный курс по гитаре.
Подарок от PrimaNota.Ru, забирай!