PrimaNota.ru - самый крупный в мире бесплатный архив песенных текстов, аккордов, табулатур и нот


Dog & Panther - Else - таба, видео

Регистрация Запомнить меня
Войти через:  Facebook Google Twitter Vk Yandex Mail.ru

Dog & Panther - Else - таба, видео

Печатать
Просмотров: 33
-------------------------------------------------------------------------------
                             ELSE - Dog & Panther
-------------------------------------------------------------------------------

C: 032010
F: --3211
Fmaj7: 003210
Em: 022000
G: 320003

      C
e|---------------------------------------------------
B|-----------1-----------1------------1-----------1--
G|-----0-----------0------------0-----------0--------
D|--------2-----------2------------2-----------2-----
A|--3-----------3------------3-----------3-----------
E|---------------------------------------------------
      F                        Fmaj7
e|-----------1-----------1------------0-----------0--
B|-----1-----------1------------1-----------1--------
G|--------2-----------2------------2-----------2-----
D|--3-----------3------------3-----------3-----------
A|---------------------------------------------------
E|---------------------------------------------------
      Em                       G
e|------------------------------------3-----------3--
B|-----------0-----------0---------------------------
G|-----0-----------0---------------------------------
D|--------2-----------2---------0-----------0--------
A|--2-----------2------------------2-----------2-----
E|---------------------------3-----------3-----------
Strum C on the last word

One is best
One is best
Two is so much sweeter
April's cold water falling
The dotted yellow line
Guides me back to bed

If this is life
This is life
Always moving on
No time for myself
Here is now
Who picks up my pieces

If this is it
This is it
All was well
I won't get another chance
I can still feel her hands
I thought I found her

But she won't
But she won't
Think about the future
Or get a steady job
She's so much like my mom
Go now

Hold someone else

************************************
Добавлено: 10.06.2016
Другие материалы по этой песне:
  • Аккорды и текст

Страница создана 10.06.2016
http://primanota.ru/dog-and-panther/else-chords.htm
Привет, Гость.
Предлагаем пройти революционный курс по гитаре.
Подарок от PrimaNota.Ru, забирай!