PrimaNota.ru - самый крупный в мире бесплатный архив песенных текстов, аккордов, табулатур и нот


Does It Offend You Yeah - With A Heavy Heart I Regret To Inform You - текст песни, бас-таба, видео

Регистрация Запомнить меня
Войти через:  Facebook Google Twitter Vk Yandex Mail.ru

Does It Offend You Yeah - With A Heavy Heart I Regret To Inform You - текст песни, бас-таба, видео

Печатать
Просмотров: 173
Уроки эстрадного вокала в Санкт-Петербурге
-------------------------------------------------------------------------------
With A Heavy Heart (I Regret To Inform You) - Does It Offend You, Yeah?
-------------------------------------------------------------------------------

Tabbed By : Louis Richards AKA MadClownDisease
e-mail: hereticbynature@hotmail.com

A piss-easy song! Just listen for the rhytm then it is essentially 2 notes.

Tuning: Drop D

(0:05)
G|-----------------------------|
D|-----------------------------| x15
A|-6--7--6-6-----6--7--6-6-----|
D|--------------------------1--|

G|-----------------------------|
D|-----------------------------|
A|-6--7--6-6-----6--7--6-6-----|
D|-----------------------------|

G|-----------------------------|
D|-----------------------------| x8
A|-6--7--6-6-----6--7--6-6-----|
D|------------1----------------|

G|-----------------------------|
D|-----------------------------| x4
A|-6--7--6-6-----6--7--6-6-----|
D|--------------------------1--|

(1:49)
G|-----------------------------|
D|-----------------------------| x8
A|-----------------------------|
D|-1--2-2p1-1---1--2-2p1-1--1--|

(2:17)
G|-----------------------------------------------------------|
D|-----------------------------------------------------------|
A|-----------------------------------------------------------|
D|-9-9-9-9-9-9-9-9-6-6-6-6-6-6-6-6-1--2-2p1-1---1--2-2p1-1---|

G|-----------------------------------------------------------|
D|-----------------------------------------------------------|
A|---------------------------------6--7--6-6----6--7--6-6----|
D|-9-9-9-9-9-9-9-9-6-6-6-6-6-6-6-6---------------------------|

G|-----------------------------|
D|-----------------------------| x3
A|-6--7--6-6-----6--7--6-6-----|
D|-----------------------------|

(2:44)
G|-----------------|
D|-----------------| x15
A|-6--7--6-6--7--6-|
D|-----------------|

G|-----------------|
D|-----------------| x15
A|-6--7--6-6--7----|
D|--------------12/|

(3:13)
G|---------------------------|
D|---------------------------| x8
A|---------------------------|
D|-1--2--1-1----1--2--1-1----|

G|-----------------|
D|-----------------| x4
A|-----------------|
D|-1--2--1-1--2--1-|

Yeah there you go... easy... (or tabbed wrong lol)

| /  slide up
| \  slide down
| h  hammer-on
| p  pull-off
| ~  vibrato
| +  harmonic
| x  Mute note
===============================================================================
Добавлено: 29.04.2012
Другие материалы по этой песне:
  • Аккорды и текст

Страница создана 29.04.2012
http://primanota.ru/does-it-offend-you-yeah/with-a-heavy-heart-i-regret-to-inform-you-chords.htm
Привет, Гость.
Предлагаем пройти революционный курс по гитаре.
Подарок от PrimaNota.Ru, забирай!