PrimaNota.ru - самый крупный в мире бесплатный архив песенных текстов, аккордов, табулатур и нот


Does It Offend You Yeah - With A Heavy Heart - текст песни, таба, видео

Регистрация Запомнить меня
Войти через:  Facebook Google Twitter Vk Yandex Mail.ru

Does It Offend You Yeah - With A Heavy Heart - текст песни, таба, видео

Печатать
Просмотров: 125
-------------------------------------------------------------------------------
                             With A Heavy Heart - Does It Offend You, Yeah?
-------------------------------------------------------------------------------
Tabbed by: Tobi R./ Szaladin
Email:sz4l4d1n@googlemail.com

Tuning:DADGbe

This song is particulary easy, it's mainly one riff arranged in different octaves and 
by lots of effect stuff. A lot of this is played with keys, especially the high pitched 
(you'd need a 32 frets guitar or worse to play it with a guitar ;D).

Intro:
e|--------------|
B|--------------|
G|--------------|
D|-2------------|
A|-2------------|
D|-2------------|


This is the main riff, played in two variations:
e|--------------|
B|--------------|
G|--------------|
D|--------------|
A|--1-2-1-1-----|
D|--1-2-1-1-----|

and:
e|--------------|
B|--------------|
G|--------------|
D|--------------|
A|--1-2-0-1-----|
D|--1-2-0-1-----|
These two are played all through the song.


The first verse is mainly bass with this:
e|------------------------------------------------------------|
B|-------16-17-16---------------------------------------------|
G|-------16-16-16---------------------------------------------|
D|-------14-14-14---------------------------------------------|
A|------------------------------------------------------------|
D|------------------------------------------------------------|


The bass plays actually the same riffs as the guitar:
G|-----------|
D|-----------|
A|-----------|
D|--1-2-1-1--|


Then the chorus kicks in (see main riff above). It's accompanied by keys and crazy effects.


In the second verse you get the "high pitched sliding machine stuff":
e|-------/11--/12--11--11--------------------------------------|
B|-------------------------------------------------------------|
G|-------------------------------------------------------------|
D|-------------------------------------------------------------|
A|-------------------------------------------------------------|
D|-------------------------------------------------------------|


The "Oh, God" Part is a lot of whammy bar and flanger fun. This is not very accurate, 
it's hard to figure out and to write down.
e|-------------------------------------------------------------|
B|-------------------------------------------------------------|
G|-------------------------------------------------------------|
D|-------------------------------------------------------------|
A|-1~--3~--5~--------------------------------------------------|
D|-------------------------------------------------------------|


"I'll pay for her wayward eyes"
e|-----------------23-23-23-h24-23-23-24-p23-------------------|
B|-------------------------------------------------------------|
G|-------------------------------------------------------------|
D|--9-------6--------------------------------------------------|
A|--9-------6--------------------------------------------------|
D|--9-------6--------------------------------------------------|

e|-----------------23-23-23-h24-23-\11-11-11-11-12-11----------|
B|-------------------------------------------------------------|
G|-------------------------------------------------------------|
D|--9-------6--------------------------------------------------|
A|--9-------6--------------------------------------------------|
D|--9-------6--------------------------------------------------|

To the end the main riff is played in a differend rhythm
e|-------------------------------------------------------------|
B|-------------------------------------------------------------|
G|-------------------------------------------------------------|
D|-------------------------------------------------------------|
A|--1-2-2-1-2-2------------------------------------------------|
D|--1-2-2-1-2-2------------------------------------------------|


| /  slide up
| \  slide down
| h  hammer-on
| p  pull-off
| ~  vibrato
| +  harmonic
| x  Mute note
===============================================================================
Добавлено: 25.07.2012
Другие материалы по этой песне:
  • Аккорды и текст

Страница создана 25.07.2012
http://primanota.ru/does-it-offend-you-yeah/with-a-heavy-heart-chords.htm
Привет, Гость.
Предлагаем пройти революционный курс по гитаре.
Подарок от PrimaNota.Ru, забирай!