PrimaNota.ru - самый крупный в мире бесплатный архив песенных текстов, аккордов, табулатур и нот


Does It Offend You Yeah - Weird Science - бас-таба, видео

Регистрация Запомнить меня
Войти через:  Facebook Google Twitter Vk Yandex Mail.ru

Does It Offend You Yeah - Weird Science - бас-таба, видео

Печатать
Просмотров: 95
No bass until 1:16 Intro:
G|-----------|
D|-----------|
A|----1-2----|
D|-1---------|

1:31 Main Riff:
G|--------------------------------------------|
D|--------------------4-5-6----6-7-8---8p9----|
A|----1-2----4-5-6----------------------------|
D|-1--------1--------1--------1---------------|

2:31 Break:
G|-------------------|
D|-------------------|
A|----1-2--------1-2-|
D|-1---------01------|
            |-repeat-|

3:00 No bass

3:30 Main Riff:
G|--------------------------------------------|
D|--------------------4-5-6----6-7-8---8p9----|
A|----1-2----4-5-6----------------------------|
D|-1--------1--------1--------1---------------|

4:30 No Bass

4:47 Outro:
G|-----------|
D|-----------|
A|----1-2----|
D|-1---------|
Добавлено: 02.04.2012
Другие материалы по этой песне:
  • Аккорды и текст

Страница создана 02.04.2012
http://primanota.ru/does-it-offend-you-yeah/weird-science-chords.htm
Привет, Гость.
Предлагаем пройти революционный курс по гитаре.
Подарок от PrimaNota.Ru, забирай!