PrimaNota.ru - самый крупный в мире бесплатный архив песенных текстов, аккордов, табулатур и нот


Does It Offend You Yeah - Lets Make Out - текст песни, бас-таба, видео

Регистрация Запомнить меня
Войти через:  Facebook Google Twitter Vk Yandex Mail.ru

Does It Offend You Yeah - Lets Make Out - текст песни, бас-таба, видео

Печатать
Просмотров: 127
-------------------------------------------------------------------------------
			     Let's Make Out - Does It Offend You, Yeah?
-------------------------------------------------------------------------------

Tabbed By : Louis Richards AKA MadClownDisease
e-mail: hereticbynature@hotmail.com

Tuning: Standard

Official website: http://www.doesitoffendyou.com/
Myspace: http://www.myspace.com/doesitoffendyou

Intro ("Let's make out, let's make out...") -no bass

Verse (0:15) x2
G|------------------------|
D|-------------------6p5--| x3
A|-5---5-5----5--5-5------|
E|------------------------|

G|-------------------------|
D|-------------------------|
A|-8---8-8----8-8--8-8-8-8-| 
E|-------------------------|
 ^apart from the last time there is also a slide from around 10th fret at the end^

Chorus (0:45)x2
G|---------------------------------------------|
D|-------------6----------6-6-6-5-5-5----------|
A|-5-5-5-8-8-8------------------------5--------|
E|---------------------------------------------|

Verse (0:59) x4

Chorus (1:44) x4

Break (2:13)

Second part ("I'm in love with you, my baby, girl I'm love with you..." (2:21)
G|----------------------------|
D|------------6p5-------6p5---| x15
A|-5--5--5--5-----3h5-5-----3-|
E|----------------------------|

G|----------------------------|
D|------------6p5-------------|
A|-5--5--5--5-----3h5-5-5-5---|
E|----------------------------|

G|----------------------------|
D|------------6p5-------6p5---| x3
A|-5--5--5--5-----3h5-5-----3-|
E|----------------------------|

G|----------------------------|
D|------------6p5-------6p5---|
A|-8--8--8--------3h5-5-----3-|
E|----------------------------|

G|----------------------------|
D|------------6p5-------6p5---| x3
A|-5--5--5--5-----3h5-5-----3-|
E|----------------------------|

G|----------------------------|
D|------------6p5-------6p5---|
A|-8--8--8--8-----3h5-5-----3-|
E|----------------------------|

| /  slide up
| \  slide down
| h  hammer-on
| p  pull-off
| ~  vibrato
| +  harmonic
| x  Mute note
===============================================================================
Добавлено: 03.05.2012
Другие материалы по этой песне:

Страница создана 28.03.2012
http://primanota.ru/does-it-offend-you-yeah/lets-make-out-chords.htm
Привет, Гость.
Предлагаем пройти революционный курс по гитаре.
Подарок от PrimaNota.Ru, забирай!