PrimaNota.ru - самый крупный в мире бесплатный архив песенных текстов, аккордов, табулатур и нот


Does It Offend You Yeah - Being Bad Feels Pretty Good - текст песни, бас-таба, видео

Регистрация Запомнить меня
Войти через:  Facebook Google Twitter Vk Yandex Mail.ru

Does It Offend You Yeah - Being Bad Feels Pretty Good - текст песни, бас-таба, видео

Печатать
Просмотров: 176
-------------------------------------------------------------------------------
		   BEING BAD FEELS PRETTY GOOD - Does It Offend You, Yeah?
-------------------------------------------------------------------------------

Tabbed By : hughcanbefound
e-mail: hughcanbefound [at] gmail [dot] com

Tuning: Standard

INTRO, VERSE & PRECHORUS

G|---------------------------------------|
D|-3-3-----------------------------------|
A|-----4-4---6-6-------------------------|
E|---------------6-6---7-7-2-2---7-7-2-2-|

CHORUS & BRIDGE

G|---------------------------------|
D|---------------------------------|
A|-4-4-4-4-4-4-4-4-6-6-6-6-6-6-6-6-|
E|---------------------------------|

G|---------------------------------|
D|---------------------------------|
A|-2-2-2-2-2-2-2-2-----------------|
E|-----------------2-2-2-2-2-2-2-2-|

G|---------------------------------|
D|---------------------------------|
A|-4-4-4-4-4-4-4-4-6-6-6-6-6-6-6-6-|
E|---------------------------------|

G|---------------------------------|
D|---------------------------------|
A|-2-2-2-2-2-2-2-2-2-2-2-2-2-2-2-2-|
E|---------------------------------|

There are a couple of complicated fills which come up at various points throughout the 
but I decided to ignore those because I'm not good enough.
Please add them in a comment if you can!

===============================================================================
Добавлено: 06.03.2012
Другие материалы по этой песне:
  • Аккорды и текст

Страница создана 06.03.2012
http://primanota.ru/does-it-offend-you-yeah/being-bad-feels-pretty-good-chords.htm
Привет, Гость.
Предлагаем пройти революционный курс по гитаре.
Подарок от PrimaNota.Ru, забирай!