PrimaNota.ru - самый крупный в мире бесплатный архив песенных текстов, аккордов, табулатур и нот


Doe Maar - Winnetoe - бас-таба, видео

Регистрация Запомнить меня
Войти через:  Facebook Google Twitter Vk Yandex Mail.ru

Doe Maar - Winnetoe - бас-таба, видео

Печатать
Просмотров: 139
-----------------------------------------------------------------
Winnetoe - Doe Maar
-----------------------------------------------------------------

Tuning: EADG

G|---------------------------------------------------------------|
D|-------1~-------3---1-2----------------------------------------|
A|--3-3---------3---3-----3--------------------------------------|
E|-3-3-3---------------------------------------------------------|

G|---------------------------------------------------------------|
D|---------------------------------------------------------------|
A|---3-5-5---3-5-5------1-3-3---1-3-3----------------------------|
E|-5-------5-------5--3-------3-------3--------------------------| 2x

G|---------------------------------------------------------------|
D|-----------------------3-5-5---3-5-5------1-3-3---1-3-3--------|
A|---3-5-5---3-5-5-----5-------5-------5--3-------3-------3------|
E|-5-------5-------5---------------------------------------------|

G|-----2-2-----2-2-----------------------------------------------|
D|-2-5-----2-5-----2----3-5-5---3-5-5----------------------------|
A|--------------------5-------5----------------------------------|
E|---------------------------------------------------------------|

G|---------------------------------------------------------------|
D|---1-3-3----3-5-5--3-2------------1-3-3---3-5-5--2--2-3-5------|
A|-3--------5------------3-3-1----3-------5-----------------3----|
E|-----------------------------3---------------------------------|


| /  slide up
| \  slide down
| h  hammer-on
| p  pull-off
| ~  vibrato
| +  harmonic
| x  Mute note
Добавлено: 11.06.2012
Другие материалы по этой песне:
  • Аккорды и текст

Страница создана 11.06.2012
http://primanota.ru/doe-maar/winnetoe-chords.htm
Привет, Гость.
Предлагаем пройти революционный курс по гитаре.
Подарок от PrimaNota.Ru, забирай!