PrimaNota.ru - самый крупный в мире бесплатный архив песенных текстов, аккордов, табулатур и нот


Doe Maar - Bella Donna - таба, видео

Регистрация Запомнить меня
Войти через:  Facebook Google Twitter Vk Yandex Mail.ru

Doe Maar - Bella Donna - таба, видео

Печатать
Просмотров: 36
Авторы музыки: Jan Hendriks

Doe Maar - Bella Donna

Title: Bella Donna
Band: Doe Maar
Album: Skunk
Composer: Jan Hendriks
Year: 1981
Tab Author: Disidaus

Rhythm guitar

 |:F#m             |Am              |Bm               |Em              :|

Bass guitar

g| ----------------|----------------|-----------------|---------------- |
d|.----------------|----------------|---------4-4-4-4-|-2--------------.|
a|.--------4-4-4-4-|-0--0--0--------|-2-2-2-2---------|----2-----------.|
e| 2-2-2-2---------|----------------|-----------------|-------0-------- |

Bass guitar variation

g|-----------------|----------------|-----------------|----4--4--------|
d|-----------------|----------------|---------4-4-4-4-|-2--------------|
a|---------4-4-4-4-|-0--0--0--------|-2-2-2-2---------|----------------|
e|-2-2-2-2---------|----------------|-----------------|----------------|

Lead guitar
0:00
e|-----------------------------------------------------------------------------|
b|-----15-14-12----14------------8-----8---------------------------------------|
g|-/11----------------------9-11-11/12-12\11-9-9/12------11\9\7/9/11\9\7/9-----|
d|-s------------14-----------------b-----b------s----------b-p-h-b--b-p-h------|
a|-----------------------------------------------------------------------------|
e|-----------------------------------------------------------------------------|
0:07
e|-----------------------------------------------------------------------------|
b|-----15-14-12----14-------8-8--8-----8-----8-12--------7---------------------|
g|-/11----------------------9-11-11/12-12\11-9-12--------9/11\9\7/9/11\9\7/9---|
d|-s------------14-----------------b-----b----------------b--b-p-h-b--b-p-h----|
a|-----------------------------------------------------------------------------|
e|-----------------------------------------------------------------------------|
0:14
e|-----14-12-------------------------------------------------------------------|
b|-----------15-12-12-12/14----14/15-15\14--13--13/14\13---12-------12\--------|
g|-/11------------------s--------b-----b----------b--b----------------s--------|
d|-s---------------------------------------------------------------------------|
a|-----------------------------------------------------------------------------|
e|-----------------------------------------------------------------------------|
0:21
e|-----14-12------------------------------14/16\14-----------------------------|
b|-----------15-12-12-12/14--14/15-15-13----b--b---12--------------------------|
g|-/11------------------s------b-----------------------------------------------|
d|-s---------------------------------------------------------------------------|
a|-----------------------------------------------------------------------------|
e|-----------------------------------------------------------------------------|
0:28
e|------------------------------------------------7----------------------------|
b|-----15-14-12----14----8-8--8-----8-----8-12----10/12\10--7------------------|
g|-/11-------------------9-11-11/12-12\11-9-12------b--b----9/11\9--7-7/9-9----|
d|-s------------14--------------b-----b-----------------------b--b-------------|
a|-----------------------------------------------------------------------------|
e|-----------------------------------------------------------------------------|
0:35
e|-----------------------------------------------7-----------------------------|
b|-----15-14-12----14---8----8-----8-----8-12----10/12\10/7--------------------|
g|-/11------------------9/11-11/12-12\11-9-12------b--b--p--7/9\7-9/11-7/9\7/9-|
d|-s------------14-------h-----b-----b-----------------------h-p---b----h-p-s--|
a|-----------------------------------------------------------------------------|
e|-----------------------------------------------------------------------------|
0:42
e|-----14-12-------------------------------------------------------------------|
b|-----------15-12-12/14-14----14/15-15\14--13--13/14\13--12------12\----------|
g|-/11---------------s-----------b-----b----------b--b--------------s----------|
d|-s---------------------------------------------------------------------------|
a|-----------------------------------------------------------------------------|
e|-----------------------------------------------------------------------------|
0:49
e|-----14-12----------------------------------14-/-16-\-14---------------------|
b|-----------15-12-12/14-14----14/15-14--13------b----b--------12--------------|
g|-/11---------------s-----------b---------------------------------------------|
d|-s---------------------------------------------------------------------------|
a|-----------------------------------------------------------------------------|
e|-----------------------------------------------------------------------------|
1:24
e|-----------------------------------------------------------------------------|
b|-----15-14-12----14------------8-----8----------------7----------------------|
g|-/11----------------------9-11-11/12-12\11-9-9/12-----9/11-9-7-9-11\9-7/9----|
d|-s------------14-----------------b-----b------s--------b-----------b---h-----|
a|-----------------------------------------------------------------------------|
e|-----------------------------------------------------------------------------|
1:31
e|-----------------------------------------------------------------------------|
b|-----15-14-12----14-------8-8--8-----8-----8-12--------7---------------------|
g|-/11----------------------9-11-11/12-12\11-9-12--------9/11\9\7/9/11\9\7/9---|
d|-s------------14-----------------b-----b----------------b--b-p-h-b--b-p-h----|
a|-----------------------------------------------------------------------------|
e|-----------------------------------------------------------------------------|
1:38
e|-----14-12-------------------------------------------------------------------|
b|-----------15-12-12/14-14----14/15-15\14--13--13/14\13--12------12\----------|
g|-/11---------------s-----------b-----b----------b--b--------------s----------|
d|-s---------------------------------------------------------------------------|
a|-----------------------------------------------------------------------------|
e|-----------------------------------------------------------------------------|
1:45
e|-----14-12----------------------------------14--14/16\14---------------------|
b|-----------15-12-12/14-14----14/15-14--13---------b--b--------12-------------|
g|-/11---------------s-----------b---------------------------------------------|
d|-s---------------------------------------------------------------------------|
a|-----------------------------------------------------------------------------|
e|-----------------------------------------------------------------------------|

The outro gives room for improvisation. The rhythm guitar uses the same chords
but varies the rhythm of strumming and damping. The bass and lead guitar use the
F# minor natural scale (F# Aeolian Mode: F# - G# - A - B - C# - D - E - F#) for
variation and improvisation.

This is how I hear and play this song. I do not claim this is 100% accurate, but
it's pretty close. I am always open to suggestions and improvements, so PLEASE do
share. Thanks!
Добавлено: 27.05.2016
Другие материалы по этой песне:
  • Аккорды и текст

Страница создана 27.05.2016
http://primanota.ru/doe-maar/bella-donna-chords.htm
Привет, Гость.
Предлагаем пройти революционный курс по гитаре.
Подарок от PrimaNota.Ru, забирай!