PrimaNota.ru - самый крупный в мире бесплатный архив песенных текстов, аккордов, табулатур и нот


Doe Maar - 32 Jaar - бас-таба, видео

Регистрация Запомнить меня
Войти через:  Facebook Google Twitter Vk Yandex Mail.ru

Doe Maar - 32 Jaar - бас-таба, видео

Печатать
Просмотров: 138
Doe maar - 32 jaar (sinds 1 dag of 2) Bass guitar Tab 

Listen to the song, and you'll understand the tabs :D

4-4
INTRO
G|--------|--------|--------|--------|
D|--------|--------|--------|--------|
A|--------|--------|--------|--------|
E|--------|--------|--------|--------|
  1 2 3 4 |1 2 3 4 |1 2 3 4 |1 2 3 4 |

   Sinds een dag of 2...
G|--------|--------|--------|--------|--------|--------|--------|--------|
D|--------|--------|--------|--------|--------|--------|--------|--------|
A|--------|--------|--------|--------|----44--|55--66--|--------|--------|
E|55------|--------|55------|----554-|22------|------0-|55------|--------|
  1 2 3 4 |1 2 3 4 |1 2 3 4 |1 2 3 4 |1 2 3 4 |1 2 3 4 |1 2 3 4 |1 2 3 4 |

   Ik kijk om me heen...
G|--------|--------|--------|--------|--------|--------|--------|--------|
D|--------|--------|--------|--------|--------|--------|--------|--------|
A|--------|--------|--------|--------|----44--|55--66--|--------|--------|
E|55--55--|55--55--|55--55--|55--554-|22------|------0-|55------|55------|
  1 2 3 4 |1 2 3 4 |1 2 3 4 |1 2 3 4 |1 2 3 4 |1 2 3 4 |1 2 3 4 |1 2 3 4 |

   't is wel een beetje raar,...
G|--------|--------|--------|--------|--------|--------|
D|--------|--------|--------|--------|--------|--------|
A|--------|--------|--------|--------|--------|--------|
E|55554444|33332222|11111111|11111111|33333333|33333333|
  1 2 3 4 |1 2 3 4 |1 2 3 4 |1 2 3 4 |1 2 3 4 |1 2 3 4 |

   Oeh la la, la, la, la,...
G|--------|--------|--------|--------|--------|--------|--------|--------|
D|--------|00------|--------|00------|--------|00------|--------|00------|
A|-----0--|--------|-----0--|--------|-----0--|--------|-----0--|--------|
E|--010-10|--------|--010-10|--------|--010-10|--------|--010-10|--------|
  1 2 3 4 |1 2 3 4 |1 2 3 4 |1 2 3 4 |1 2 3 4 |1 2 3 4 |1 2 3 4 |1 2 3 4 |

   Mannen bij de vleet...
G|--------|--------|--------|--------|--------|--------|--------|--------|
D|--------|--------|--------|--------|--------|--------|--------|--------|
A|--------|--------|--------|--------|----44--|55--66--|--------|--------|
E|55--55--|55--55--|55--55--|55--554-|22------|------0-|55------|55------|
  1 2 3 4 |1 2 3 4 |1 2 3 4 |1 2 3 4 |1 2 3 4 |1 2 3 4 |1 2 3 4 |1 2 3 4 |

   Alles wat ze zegt...
G|--------|--------|--------|--------|--------|--------|--------|--------|
D|--------|--------|--------|--------|--------|--------|--------|--------|
A|--------|--------|--------|--------|----44--|55--66--|--------|--------|
E|55--55--|55--55--|55--55--|55--554-|22------|------0-|55------|55------|
  1 2 3 4 |1 2 3 4 |1 2 3 4 |1 2 3 4 |1 2 3 4 |1 2 3 4 |1 2 3 4 |1 2 3 4 |

   Wel een beetje raar,...
G|--------|--------|--------|--------|--------|--------|
D|--------|--------|--------|--------|--------|--------|
A|--------|--------|--------|--------|--------|--------|
E|55554444|33332222|11111111|11111111|33333333|33333333|
  1 2 3 4 |1 2 3 4 |1 2 3 4 |1 2 3 4 |1 2 3 4 |1 2 3 4 |

   Oeh la la, la, la, la,...
G|--------|--------|--------|--------|--------|--------|--------|--------|
D|--------|00------|--------|00------|--------|00------|--------|00------|
A|-----0--|--------|-----0--|--------|-----0--|--------|-----0--|--------|
E|--010-10|--------|--010-10|--------|--010-10|--------|--010-10|--------|
  1 2 3 4 |1 2 3 4 |1 2 3 4 |1 2 3 4 |1 2 3 4 |1 2 3 4 |1 2 3 4 |1 2 3 4 |

GUITAR SOLO 10 chords

G|----|----|----|----|----|----|----|----|----|----|
D|----|----|----|----|----|----|----|----|----|----|
A|----|----|----|----|----|----|----|----|----|----|
E|----|----|----|----|----|----|----|----|----|----|
  1234|1234|1234|1234|1234|1234|1234|1234|1234|1234|

   Oeh la la, la, la, la,...
G|--------|--------|--------|--------|--------|--------|--------|--------|
D|--------|00------|--------|00------|--------|00------|--------|00------|
A|-----0--|--------|-----0--|--------|-----0--|--------|-----0--|--------|
E|--010-10|--------|--010-10|--------|--010-10|--------|--010-10|--------|
  1 2 3 4 |1 2 3 4 |1 2 3 4 |1 2 3 4 |1 2 3 4 |1 2 3 4 |1 2 3 4 |1 2 3 4 |

   Oeh la la, la, la, la,...
G|--------|--------|--------|--------|--------|--------|
D|--------|00------|--------|00------|--------|00------|
A|-----0--|--------|-----0--|--------|--------|--------|
E|--010-10|--------|--010-10|--------|--0222-2|3-------| FIN
  1 2 3 4 |1 2 3 4 |1 2 3 4 |1 2 3 4 |1 2 3 4 |1 2 3 4 |

I Hope you understand it.

please leave a comment.

grtz kevin



Добавлено: 14.04.2012
Другие материалы по этой песне:
  • Аккорды и текст

Страница создана 14.04.2012
http://primanota.ru/doe-maar/32-jaar-chords.htm
Привет, Гость.
Предлагаем пройти революционный курс по гитаре.
Подарок от PrimaNota.Ru, забирай!