PrimaNota.ru - самый крупный в мире бесплатный архив песенных текстов, аккордов, табулатур и нот


Dodgy - One Of Those Rivers - аккорды и текст, таба, видео

Регистрация Запомнить меня
Войти через:  Facebook Google Twitter Vk Yandex Mail.ru

Dodgy - One Of Those Rivers - аккорды и текст, таба, видео

Печатать
Просмотров: 155
One Of Those Rivers
Dodgy



#This file is the author's own work and represents their interpretation of the #
#song. You may only use this file for private study, scholarship, or research. #
#------------------------------------------------------------------------------#

from Freddy The Frog
mi950072@newi.ac.uk


One Of Those Rivers - DODGY


Intro. (repeat twice):
---------------------------|---------------------------|
----2--------3----2--------|----2--------3----2--------|
-------2-----2----2--------|-------2-----2----2--------|
----------2----------------|----------2----------------|
-0-------------------------|-0-------------------------|
---------------------------|---------------------------|

A			Bm
Let's not worry about, ...
A				Bm
And let's not choose the ...
D				A
As long as you and ...
G				A
And surely all I want ...


I'm so excited  now that ...


G					A
And when you're not ...
G					A
And when I'm ...
D			G	G / G	G / G
Is wipe away ...
		A
for you ...


Chorus :
	A	A	     G	    A	   G	    A	   G	     A	A	
	From the rooftops, I see houses...
	A	A	G	A	   G		A	G	A
	In the distance, far in mountains, one of ...


Mist all around, now there's ....


Chorus


Solo : A / A / G / A / G / A / A / A (repeat 4 times)

-0---0---0-0-0-0---0-|-0-0-3---3-0-0-0-0-0-|-0-0-3---3-0-0-0-0-0-|
-2---2---2-3-3-3---2-|-0-0-0---0-0-2-2-2-2-|-0-0-0---0-0-2-2-2-2-|
-2---2---2-2-2-2---2-|-0-0-0---0-0-2-2-2-2-|-0-0-0---0-0-2-2-2-2-|
-2---2---2-2-2-2---2-|-0-0-0---0-0-2-2-2-2-|-0-0-0---0-0-2-2-2-2-|
-0---0---0-0-0-0---0-|-x-x-2---2-x-0-0-0-0-|-x-x-2---2-x-0-0-0-0-|
---------------------|-----3---3-----------|-----3---3-----------|

-0-0-0---0---0-0-0-0-0-0-|
-0-0-2---2---0-2-0-0-0-2-|
-2-2-2---2---2-2-2-2-2-2-|
-2-2-2---2---2-2-2-2-2-2-|
-0-0-0---0---0-0-0-0-0-0-|
-------------------------|


Intro.


I'm trying to find the force to ...


Repeat chorus twice and fade out


Добавлено: 17.12.2013
Другие материалы по этой песне:
  • Аккорды и текст

Страница создана 29.02.2012
http://primanota.ru/dodgy/one-of-those-rivers-chords.htm
Привет, Гость.
Предлагаем пройти революционный курс по гитаре.
Подарок от PrimaNota.Ru, забирай!