PrimaNota.ru - самый крупный в мире бесплатный архив песенных текстов, аккордов, табулатур и нот


Dodging Erica - Friday Wasted - таба, видео

Регистрация Запомнить меня
Войти через:  Facebook Google Twitter Vk Yandex Mail.ru

Dodging Erica - Friday Wasted - таба, видео

Печатать
Просмотров: 76
Уроки эстрадного вокала в Санкт-Петербурге
Friday Waisted-first gutiar
By Dodging Erica

figure 1 (pick threw) clean
e----------------------------------------------------------
b----------------------------------------------------------
G-------9-----9------9------9-----9------9-------9-----9---
D-----9--9--9--9---9--9---9--9--9--9---9--9----9--9---9--9-
A---7------7-----9-------9-----0------0--------------------
E---------------------------------------------9------7-----

figure 2 P.M. ( go with rythem) about 2 times distrotion
e---------------------------------------------
b---------------------------------------------
G-------9-------------------------------------
D-----9------11-----9------7------------------
A---7------11-----9------7--------------------
E--------9------7------5----------------------

figure 3 (open strum)do it untill singing stops and go threw once
e---------------------------------------------
b---------------------------------------------
G-------9-------------------------------------
D-----9------11-----9------7------------------
A---7------11-----9------7--------------------
E--------9------7------5----------------------

Go back to figure 1 but this time do its twice and then go
to distortion and strum and then it just repeats its self
     
Добавлено: 15.06.2013
Другие материалы по этой песне:
  • Аккорды и текст

Страница создана 15.06.2013
http://primanota.ru/dodging-erica/friday-wasted-chords.htm
Привет, Гость.
Предлагаем пройти революционный курс по гитаре.
Подарок от PrimaNota.Ru, забирай!