PrimaNota.ru - самый крупный в мире бесплатный архив песенных текстов, аккордов, табулатур и нот


Doddleoddle - Sick Of Losing Soulmates - таба, видео

Регистрация Запомнить меня
Войти через:  Facebook Google Twitter Vk Yandex Mail.ru

Doddleoddle - Sick Of Losing Soulmates - таба, видео

Печатать
Просмотров: 109
-------------------------------------------------------------------------------
                             Sick of losing soulmates - Dodie Clark
-------------------------------------------------------------------------------
Tuning: Normal tuning, EADGBE
You can find dodies own tutorial right here:
https://www.youtube.com/watch?v=DUl75sVtsB0

what a strange being you are
god knows where I would be 
if you hadn't found me 
sitting all alone in the dark

A dumb screenshot of youth
watch how a cold broken teen
will desperately lean on a superglued human of proof

e|---------------------------|
B|---------------------------|
G|---------------------------|
D|-------0----0-----0----0---|
A|---------------------------|
E|---5-----7-----2-----3-----|

what the hell would I be
without you

brave face talk so lightly 
hide the truth

e|-----------------------------|
B|-----------------------------|
G|-----------------------------|
D|-------0----0-----0----0----0|
A|-----------------------------|
E|---7-----5-----9-----2----3--| 

now I'm sick of losing soul mates
so where do we begin
I can finally see
you're as fucked up as me
so how do we win? 

I'm sick of losing soul mates
won't be alone again
I can finally see
you're as fucked up as me
so how do we win? 

e|-----------------------------------------|
B|-----------------------------------------|
G|-----------------------------------------|
D|-------0----0-----0----0----0----0----0--|
A|-----------------------------------------|
E|----2-----3----5----7----6----1----5-----|

We will grow old as friends
I've promised that before
so what's one more?
in our grey haired circle waiting for the end

time and hearts will wear us thin
so which path will you take
cause we both know a break
does exactly what it says on the tin

e|---------------------------|
B|---------------------------|
G|---------------------------|
D|-------0----0-----0----0---|
A|---------------------------|
E|---5-----7-----2-----3-----|


what the hell would I be
without you

brave face talk so lightly 
hide the truth

e|-----------------------------|
B|-----------------------------|
G|-----------------------------|
D|-------0----0-----0----0----0|
A|-----------------------------|
E|---7-----5-----9-----2----3--| 

now I'm sick of losing soul mates
so where do we begin
I can finally see
you're as fucked up as me
so how do we win? 

I'm sick of losing soul mates
won't be alone again
I can finally see
you're as fucked up as me
so how do we win? 

e|-----------------------------------------|
B|-----------------------------------------|
G|-----------------------------------------|
D|-------0----0-----0----0----0----0----0--|
A|-----------------------------------------|
E|----2-----3----5----7----6----1----5-----|

I won't take no for an answer

e|---------------------------|
B|---------------------------|
G|---------------------------|
D|-------0----0-----0----0---|
A|---------------------------|
E|---5-----7-----2-----3-----|


now I'm sick of losing soul mates
so where do we begin
I can finally see
you're as fucked up as me
so how do we win? 

I'm sick of losing soul mates
won't be alone again
I can finally see
you're as fucked up as me
so how do we win? 

e|-----------------------------------------|
B|-----------------------------------------|
G|-----------------------------------------|
D|-------0----0-----0----0----0----0----0--|
A|-----------------------------------------|
E|----2-----3----5----7----6----1----5-----|

Добавлено: 26.04.2016
Другие материалы по этой песне:
  • Аккорды и текст

Страница создана 26.04.2016
http://primanota.ru/doddleoddle/sick-of-losing-soulmates-chords.htm
Привет, Гость.
Предлагаем пройти революционный курс по гитаре.
Подарок от PrimaNota.Ru, забирай!