PrimaNota.ru - самый крупный в мире бесплатный архив песенных текстов, аккордов, табулатур и нот


Doctor Rockit - Cafe De Flore - таба, видео

Регистрация Запомнить меня
Войти через:  Facebook Google Twitter Vk Yandex Mail.ru

Doctor Rockit - Cafe De Flore - таба, видео

Печатать
Просмотров: 133
Авторы музыки: Matthew Herbert

-------------------------------------------------------------------------------
                         Cafe De Flore-Doctor Rockit
                               Guitar Tab
-------------------------------------------------------------------------------
Tabbed by: Erald Kuqi

                             per ty...
Tuning:standard

intro:
e|---------------------------------------------------------------------------|
B|-------4h5h4-------------5-------4-------5---------------------------------|
G|-------------------------6-------6-------6---------------------------------| 
D|-------------------------6-------6-------6---------------------------------|
A|-------------------------------------------------4-------------------------|
E|---------------------------------------------------------------------------|
        
solo:
e|---------------------------------------------------------------------------|
B|-------4h5h4---------------------------4/5-------4-------2-----------------|
G|---------------------6-----------------------------------------------------|  
D|------------------------------6--------------------------------------------|
A|---------------------------------------------------------------------------|
E|---------------------------------------------------------------------------|

e|---------------------------------------x-------x-------x-------------------|
B|-------4h5h4---------------------------5-------4-------x-------------------|
G|---------------------6-----------------6-------6-------6-------------------| 
D|------------------------------6--------6-------6-------6-------------------|
A|---------------------------------------4-------4-------4-------------------|
E|---------------------------------------x-------x-------x-------------------|

                                ..love of mine.
Добавлено: 01.07.2015
Другие материалы по этой песне:
  • Аккорды и текст

Страница создана 01.07.2015
http://primanota.ru/doctor-rockit/cafe-de-flore-chords.htm
Привет, Гость.
Предлагаем пройти революционный курс по гитаре.
Подарок от PrimaNota.Ru, забирай!