PrimaNota.ru - самый крупный в мире бесплатный архив песенных текстов, аккордов, табулатур и нот


Doc Watson - Walk on boy - текст песни, таба, видео

Регистрация Запомнить меня
Войти через:  Facebook Google Twitter Vk Yandex Mail.ru

Doc Watson - Walk on boy - текст песни, таба, видео

Печатать
Просмотров: 155



Date: Tue, 18 Oct 2005 03:02:25 -0400
From: Reid Stansell 
Subject: w/watson_doc/walk_on_boy.tab

tabbed by Pancake (whereabouts unknown)

Walk on Boy
as performed by Doc Watson, Earl Scruggs, and Ricky Scaggs
From the album The Three Pickers (Live)

Key of Bmin

Chord Shapes used:

   Bmin  A/Bmin  F#7    Dmaj   Gmaj  F#maj E/F#maj F#/Bmin

E   2      2      2      2      3      2      2      2
B   3      3      2      3      3      2      2      3
G   4      4      3      2      4      3      3      4
D   4      4      2      0      5      4      4      4
A   2      0      4      x      5      4      4      x
E   x      x      2      x      3      2      0      2

Verse/Chorus
------------

    I     was       born    one     morning,                      the
    rain          a pourin'      down.                             I

    Bmin            A/Bmin          F#7    

    1       2       3       4       1       2        3        4

E  |--------2-----2---------2----2-|--------2------2-2------2-2-------|
B  |--------3-----3---------3----3-|--------2------2-2------2-2-------|
G  |--------4-----4---------4----4-|--------3------3-3------3-3-------|  x2
D  |--------4-----4---------4----4-|--------2------2-2------2-2-------|
A  |2---------------0--------------|--------4------4-4------4-4-------|
E  |-------------------------------|2----------------2----------------|


    heard my        mammy        say        to  my   pappy    let's

    Bmin            A/Bmin          Dmaj             Gmaj

    1       2       3       4       1       2        3        4

E  |--------2-----2---------2----2-|--------2------2-3--------3-----3-|
B  |--------3-----3---------3----3-|--------3------3-3--------3-----3-|
G  |--------4-----4---------4----4-|--------2------2-4--------4-----4-|
D  |--------4-----4---------4----4-|0----------------5--------5-----5-|
A  |2---------------0--------------|-----------------5--------5-----5-|
E  |-------------------------------|-----------------3--------3-----3-|


    call em John    Hen-    ry      Brown.           Walk   on    Boy.

    F#maj           E/F#maj         Bmin             F#/Bmin  A/Bmin

    1       2       3       4       1       2        3        4

E  |--------2-----2---------2----2-|--------2------2--------2-------2-|
B  |--------2-----2---------2----2-|--------3------3--------3-------3-|
G  |--------3-----3---------3----3-|--------4------4--------4-------4-|
D  |--------2-----2---------2----2-|--------4------4--------4-------4-|
A  |--------4-----4---------4----4-|2-------------------------0-------|
E  |2---------------0--------------|-----------------2----------------|
                                                  
    Bmin                            Bmin             A/Bmin

    1       2       3       4       1       2        3        4

E  |--------2------2------2-2------|--------2-----2---------2----2----|
B  |--------3------3------3-3------|--------3-----3---------3----3----|
G  |--------4------4------4-4------|--------4-----4---------4----4----|
D  |--------4------4------4-4------|--------4-----4---------4----4----|
A  |2------------------------------|2---------------0-----------------|
E  |-------------------------------|----------------------------------|


    Walk  on     down           the road.

    Bmin            A/Bmin          F#7

    1       2       3       4       1       2        3        4

E  |--------2-----2---------2----2-|--------2------2-2------2-2-------|
B  |--------3-----3---------3----3-|--------2------2-2------2-2-------|
G  |--------4-----4---------4----4-|--------3------3-3------3-3-------|
D  |--------4-----4---------4----4-|--------2------2-2------2-2-------|
A  |2---------------0--------------|--------4------4-4------4-4-------|
E  |-------------------------------|2----------------2----------------|


    Ain't no-     body      in the  whole wide   world        gonna

    Bmin            A/Bmin          Dmaj             Gmaj

    1       2       3       4       1       2        3        4

E  |--------2-----2---------2----2-|--------2------2-3--------3-----3-|
B  |--------3-----3---------3----3-|--------3------3-3--------3-----3-|
G  |--------4-----4---------4----4-|--------2------2-4--------4-----4-|
D  |--------4-----4---------4----4-|0----------------5--------5-----5-|
A  |2---------------0--------------|-----------------5--------5-----5-|
E  |-------------------------------|-----------------3--------3-----3-|


    help you     carry      your    load.

    F#maj           E/F#maj         Bmin             F#/Bmin  A/Bmin

    1       2       3       4       1       2        3        4

E  |--------2-----2---------2----2-|--------2------2--------2-------2-|
B  |--------2-----2---------2----2-|--------3------3--------3-------3-|
G  |--------3-----3---------3----3-|--------4------4--------4-------4-|
D  |--------2-----2---------2----2-|--------4------4--------4-------4-|
A  |--------4-----4---------4----4-|2-------------------------0-------|
E  |2---------------0--------------|-----------------2----------------|

    Bmin            F#/Bmin

    1       2       3       4      

E  |--------2-----2---------2----2-| |
B  |--------3-----3---------3----3-| |
G  |--------4-----4---------4----4-|.|  repeat as needed.
D  |--------4-----4---------4----4-|.|
A  |2------------------------------| |
E  |----------------2--------------| |


Добавлено: 05.08.2013
Другие материалы по этой песне:
  • Аккорды и текст

Страница создана 05.08.2013
http://primanota.ru/doc-watson/walk-on-boy-chords.htm
Привет, Гость.
Предлагаем пройти революционный курс по гитаре.
Подарок от PrimaNota.Ru, забирай!