PrimaNota.ru - самый крупный в мире бесплатный архив песенных текстов, аккордов, табулатур и нот


Doane Malachi - Ashleys Ditty - таба

Регистрация Запомнить меня
Войти через:  Facebook Google Twitter Vk Yandex Mail.ru

Doane Malachi - Ashleys Ditty - таба

Печатать
Просмотров: 91
---------------------------------------------
"Ashley's Ditty" ->  By Malachi Doane 2003
-------------------------------------------------------
Pick brightly and move it along. 
(*) - this is my sign for a Coda



123456
||||||
|||||X --5th fret
||||X|
|||X||   -tap this with your pinki finger 
||||||
||||||
||||||
||||||


|5----5----5----7--5------------------
|--6----6----6-------6----------------
|7----7-------------------------------
|-------------------------------------
|-------------------------------------
|-------------------------------------   
  

Am

|0----0----0----1--0------------------
|--1----1----1--------1---------------
|2----2-------------------------------
|-------------------------------------
|-------------------------------------
|-------------------------------------


 E                           Asus?                    
                                       
                          (*) Repeat once and follow
Coda to final cord->  
|---------------------------------------------------|R
|0-----0-----0------1--0--------------------------@-|E
|---1-----1----1---------1---2-----2-----2----2-----|P
|2-----2---------------------2--2--2--2--2--2-----@-|E
|---------------------------------------------------|A
|---------------------------------------------------|T

CODA                         END
|------5----5----5--------     |
|------5----5----5----------   |
|-------6----6----6---------   |
|--------7----7----7-------    |
|------0----0----0-----------  |
|------0----0----0------------ |




     
Добавлено: 02.08.2013
Другие материалы по этой песне:
  • Аккорды и текст

Страница создана 02.08.2013
http://primanota.ru/doane-malachi/ashleys-ditty-chords.htm
Привет, Гость.
Предлагаем пройти революционный курс по гитаре.
Подарок от PrimaNota.Ru, забирай!