PrimaNota.ru - самый крупный в мире бесплатный архив песенных текстов, аккордов, табулатур и нот


Doane Malachi - As I Walk This Dusty Road - таба

Регистрация Запомнить меня
Войти через:  Facebook Google Twitter Vk Yandex Mail.ru

Doane Malachi - As I Walk This Dusty Road - таба

Печатать
Просмотров: 77
"As I Walk This Dusty Road": M.Doane 2003
Pick it out, or Strum it Quick, the melody is in the
chords.

 
 G         B7        Em       Em
 
|3----3----2----2-----0---0---0---0---
|0-0---0---2-0---0-----0---0---0---0--
|---0---0-----2---2-----0---0---0---0-
|-------------------------------------
|----------2----------2-------2-------
|3------------------------------------   

  G------B7----------------Em-------Em
  as  I   walk this dusty  road       


 C         G        D        D

|0-0--0----3---3----2---2----2----2---
|---1--1---0-0--0-----3--3-----3---3--
|----0--0-----0--0-----2--2-----2---2-
|-------------------0--------0--------
|3------------------------------------
|----------3--------------------------

  C---------G--------------D---D
 don't know where I should go  



 G         B7        Em       Em
 
|3----3----2----2-----0---0---0---0---
|0-0---0---2-0---0-----0---0---0---0--
|---0---0-----2---2-----0---0---0---0-
|-------------------------------------
|----------2----------2-------2-------
|3------------------------------------   

  G---------B7-----Em-------Em
  I see my country unfold  


 F         D         G         G

|1----1----2----2----3----3----3----3---
|--1---1-----3---3---0-0---0---0-0---0--
|---2---2-----2---2-----0---0-----0---0-
|3---------0----------------------------
|---------------------------------------
|--------------------3---------3--------

 F----D---------------G------G
 as I walk this dusty road
     
Добавлено: 26.06.2013
Вам также может быть интересно:
Другие материалы по этой песне:
  • Аккорды и текст

Страница создана 26.06.2013
http://primanota.ru/doane-malachi/as-i-walk-this-dusty-road-chords.htm
Привет, Гость.
Предлагаем пройти революционный курс по гитаре.
Подарок от PrimaNota.Ru, забирай!