PrimaNota.ru - самый крупный в мире бесплатный архив песенных текстов, аккордов, табулатур и нот


Do Make Say Think - Goodbye Enemy Airship - бас-таба, видео

Регистрация Запомнить меня
Войти через:  Facebook Google Twitter Vk Yandex Mail.ru

Do Make Say Think - Goodbye Enemy Airship - бас-таба, видео

Печатать
Просмотров: 144
Новый альбом группы 'Черный Кузнец' по культовому сериалу 'Сверхъестественное'!
-------------------------------------------------------------------------------
			     SONG NAME - Do Make Say Think
-------------------------------------------------------------------------------

Tabbed By : Jaronator
e-mail: jaronatorpwns@gmail.com

Tuning: Standard

Intro:
G|--------|--------|--------|--------|
D|--------|--------|--------|--------|
A|---5----|--------|--------|--------| x3
E|--------|--------|--------|--------|

G|--------|--------|--------|--------|
D|--------|--------|--------|--------|
A|---5----|--------|--------|--------| 
E|--------|--------|--------|--3--5--|

G|--------|--------|--------|--------|
D|--------|--------|--------|--------|
A|---5----|--------|--\-----|--------| x3
E|--------|--------|--------|--------|

G|--------|--------|--------|--------|
D|--------|--------|--------|--------|
A|---5----|--------|--\-----|--------| 
E|--------|--------|--------|--3--5--|

G|--------|--------|--------|--------|
D|--------|--------|--------|--------|
A|---5----|--------|--\-----|--------| x5
E|--------|--------|--------|--5\-3--|

G|--------|--------|--------|--------|
D|--------|--------|--------|--------|
A|---5----|--------|--\-----|--------| 
E|--------|--------|--------|--3/--5-|


G|5/-7----|--------|--------|--------|
D|--------|--------|--------|--5/-7--|
A|-----5--|--------|--\-----|--------| until 3:48
E|--------|--------|--------|--------|

I'm not sure if the octave's right for 
everything but that single D note. So
hard to discern. And the timing's off 
a bit for this, but you should know the 
rhythm as you play it. 

Verse A:
G|-11--11-|-11--11-|-9---9--|-14--14-|
D|-12--12-|-12--12-|-11--11-|-14--14-|
A|-0---0--|-0---0--|-12--12-|-12--12-| until 9:15
E|-10--10-|-10--10-|--------|--------|

I'm pretty confident that these are the exact
chords, but you never know. It's either that, or

G|-11--11-|-11--11-|-9---9--|-14--14-|
D|-0---0--|-0---0--|-11--11-|-14--14-|
A|-0---0--|-0---0--|-0---0--|-0---0--| 
E|-10--10-|-10--10-|--------|--------|

Or something. it's tricky, but, I mean, 
regardless as to whether you're playing the open
notes or the 12th fret notes, they're essentially
the same. Open notes just make it lower and bassier.

Bridge?:
G|-11--11-|
D|-12--12-|
A|-0---0--| until 10:23
E|-10--10-|

At 9:53, I don't know if he uses a loop
pedal, or if the keyboard player does it, but
there's another bass layer on top of that:

Second track:
G|--------|--------|--------|--------|
D|--------|--------|--------|--------|
A|-5------|--------|--------|--------| 
E|--------|--------|-5------|--------|

Verse B:
G|--------|-6------|--------|--------|
D|-4------|--------|-7------|--------|
A|--------|--------|--------|-7------| 
E|--------|--------|--------|--------|

G|--------|--------|--------|--------|
D|--------|--------|--------|--------|
A|--------|--------|--------|--------| 
E|-7------|-(5)----|--------|--------|

G|--------|--------|--------|--------|
D|-4------|--------|--------|--------|
A|--------|--------|--------|--------| 
E|--------|--------|--------|--------|

G|--------|-6------|--------|--------|
D|-4------|--------|-7------|--------|
A|--------|--------|--------|--------| 
E|--------|--------|--------|-5------|

G|--------|--------|--------|--------|
D|-4------|--------|--------|--------|
A|--------|--------|--------|--------| 
E|--------|--------|--------|--------|

Outro:
G|-11--11-|
D|-12--12-|
A|--------| 
E|--------|

---
0:42 - Intro
4:43 - Verse A
9:15 - Bridge thing
10:23 - Verse B
11:06 - Outro

| /  slide up
| \  slide down
| h  hammer-on
| p  pull-off
| ~  vibrato
| +  harmonic
| x  Mute note
| () Ghost note
===============================================================================
Добавлено: 26.06.2012
Другие материалы по этой песне:
  • Аккорды и текст

Страница создана 26.06.2012
http://primanota.ru/do-make-say-think/goodbye-enemy-airship-chords.htm
Привет, Гость.
Предлагаем пройти революционный курс по гитаре.
Подарок от PrimaNota.Ru, забирай!