PrimaNota.ru - самый крупный в мире бесплатный архив песенных текстов, аккордов, табулатур и нот


Do As Infinity - Signal - бас-таба, видео

Регистрация Запомнить меня
Войти через:  Facebook Google Twitter Vk Yandex Mail.ru

Do As Infinity - Signal - бас-таба, видео

Печатать
Просмотров: 112
----------------------------------------------------------------------
	       	       SIGNAL - Do as Infinity
----------------------------------------------------------------------

Tabbed By :  Justin RiRaY    Rock on   \m/ (>_<) \m/
e-mail: Pakman7JR@hotmail.com

Tuning: EADG



     INTRO

G|--------------------------------   --------------------------------|
D|----6~-----4~-----8~-----9~---- X2 --------------------------------|
A|-------------------------------   ---------------------------------|
E|-------------------------------------------------------------------|


     VERSE

G|-----------------------------------------6--4-----   --------------|
D|----------3h4-4--6--4-------------4h6-6---------- X2 --------------|
A|---------------------------6-6-------------------   ---------------|
E|--4-4--------------------------------------------------------------|


     POST-VERSE

G|----------------------------6-4------------------------------------|
D|-----------------4-------4-------   ----2~-------------------------|
A|-------2-4-----4---2~----------- X3 -------------------------------|
E|--15\4------4-------------------   --------------------------------|


     PRE-CHORUS

G|-------------------------------------------------------------------|
D|-------------------------------------------------------------------|
A|--4-4-4---2-2-2---1-1-1--------------------------------------------|
E|--------------------------4~---------------------------------------|


     CHORUS

G|-------------------------------------------------| \
D|----------------------------4-3------------------|
A|--------------1-2-4-4-4-4-6-----4----------------|
E|--2-2-2-2-2-2------------------------------------|   \

G|-------------------------------------------------|
D|-----------------------3---4---6-----------------|      \
A|--------------1-2-4--4---4---4-------------------|    
E|--2-2-2-2-2-2------------------------------------|        \
                                                              > X2
G|-------------------------------------------------|        /
D|----------------------------4-3------------------|    
A|--------------1-2-4-4-4-4-6-----4----------------|      /
E|--2-2-2-2-2-2------------------------------------|

G|-------------------------------------------------|   /
D|--------4h6-----8h9-8----9-8-6-4-----------------|
A|--4-4-4----------------4-------------------------|
E|-------------------------------------------------| /

G|-------------------------------------------------------------------|
D|-------------4-6---------------------------------------------------|
A|--2-2-2-2-2------6~------------------------------------------------|
E|-------------------------------------------------------------------|


     BRIDGE

G|-------------------------------------------------------------------|
D|----------------------------------4-4-3h4-4------------------------|
A|--6-6------4-----------6-6------4--------------     ---------------|
E|------7--7---2-1/2-2-------7--7---------------      ---------------|
                                                  X2
G|----------------------------------------------      ---------------|
D|----------------------------------------------     ----------------|
A|--6-6------4-----------6-6------4----------------------------------|
E|------7--7---2-1/2-2-------7--7---2-1/2-2--------------------------|


     OUTRO

G|-----------------------------------------6--4--11^^----------------|
D|----------3h4-4--6--4-------------4h6-6----------------------------|
A|---------------------------6-6-------------------------------------|
E|--4-4--------------------------------------------------------------|

G|-----------------------------------------6--4----------------------|
D|----------3h4-4--6--4-------------4h6-6----------------------------|
A|---------------------------6-6-------------------------------------|
E|--4-4--------------------------------------------------------------|

G|-----------------------------------------6--4----------------------|
D|----------3h4-4--6--4-------------4h6-6----------------------------|
A|---------------------------6-6-------------------------------------|
E|--4-4--------------------------------------------------------------|

G|-----------------------------------------6--4----------------------|
D|----------3h4-4--6--4-------------4h6-6----------------------------|
A|---------------------------6-6-------------------------------------|
E|--4-4--------------------------------------------------------------|

G|-----------------------------------------6--4----------------------|
D|----------3h4-4--6--4-------------4h6-6----------------------------|
A|---------------------------6-6-------------------------------------|
E|--4-4--------------------------------------------------------------|

G|-----------------------------------------6--4----------------------|
D|----------3h4-4--6--4-------------4h6-6----------------------------|
A|---------------------------6-6-------------------------------------|
E|--4-4--------------------------------------------------------------|
   
     BASS 2 (OUTRO only)

G|-------------------------------------------------------------------|
D|-----------------------------------   -----------------------------|
A|---------------------------------- X2 -----------------------------|
E|--4-4-----2-2------6-6-----7-7----   ------------------------------|

G|-------------------------------------------------------------------|
D|-----------------------------------   -----------------------------|
A|---------------------------------- X4 -----------------------------|
E|--4-4-4~--2-2-2~--6-6-6~--7-7-7~--   ------------------------------|




| /  slide up
| \  slide down
| h  hammer-on
| p  pull-off
| ~  vibrato
| ^  bend
======================================================================
Добавлено: 13.03.2012
Другие материалы по этой песне:
  • Аккорды и текст

Страница создана 13.03.2012
http://primanota.ru/do-as-infinity/signal-chords.htm
Привет, Гость.
Предлагаем пройти революционный курс по гитаре.
Подарок от PrimaNota.Ru, забирай!