PrimaNota.ru - самый крупный в мире бесплатный архив песенных текстов, аккордов, табулатур и нот


Do As Infinity - Rumble Fish - таба, видео

Регистрация Запомнить меня
Войти через:  Facebook Google Twitter Vk Yandex Mail.ru

Do As Infinity - Rumble Fish - таба, видео

Печатать
Просмотров: 117
Уроки эстрадного вокала в Санкт-Петербурге
Rumble Fish-Do As Infinity

Tuning: Eb Ab Db Gb Bb Eb

Intro

|---------------|-----------------|-----------------|-----------------|
|-------3-----3-|-------3-----3---|-------3-----3---|-------3-----3---|
|-----0-----0---|---0-2-----0---0-|---0-2-----0-----|-----0-----0---0-|
|-2-4-----4-----|-4-------4-------|-4-------4-------|-0-4-----4-------|
|---------------|-----------------|-----------------|-----------------|
|---------------|-----------------|-----------------|-----------------|

|---------------|-----------------|-----------------|---------------0-|
|-------3-----3-|-------3-----3---|-------3-----3---|-------3-------0-|
|-----0-----0---|---0-2-----0---0-|---0-2-----0-----|-----0---0-----0-|
|-2-4-----4-----|-4-------4-------|-4-------4-------|-0-4-------4-0-2-|
|---------------|-----------------|-----------------|---------------2-|
|---------------|-----------------|-----------------|---------------0-|


Riff
|-------------|-------------|
|-------------|-------------|
|-12-11-12-11-|-12-14-12-11-|
|-------------|-------------|
|-------------|-------------|
|-------------|-------------|
|-------------|-------------|

Verse

|-------------------|
|-------------------|
|-----0-------------|
|-2-4---4-2-0-------| Repeat
|-------------3-2-2-|
|-------------------|


Pre Chorus

|-----|---------------|----------|----------|
|-----|---------------|----------|----6-4-3-|
|-4/5-|---------------|----3-----|----------|
|-4/5-|-5-------5-----|------6-5-|-/3-------|
|-2/3-|-5---5/7---7-5-|-/3-------|----------|
|-----|-3-------------|----------|----------|

                                                               End
|-----|---------------|  |-3-3-3-3-3--3-2-2-2-2-2--2-|         |-2-|
|-----|---------------|  |-3-3-3-3-3--3-3-3-3-3-3--3-|         |-3-|
|-4/5-|---------------|  |-2-2-2-2-2--2-2-2-2-2-2--2-| Repeat  |-2-|
|-4/5-|-5-------5-----|  |-0-0-0-0-0--0-0-0-0-0-0--0-|         |-0-|
|-2/3-|-5---5/7---7-5-|  |---------------------------|         |---|
|-----|-3-------------|  |---------------------------|         |---|


Chorus

C G D G
C G D Em
C G D G
C G D Em
C G Em


Ryo's Part 1
|----------|   |------------|
|----------|   |---------12-|
|----------|   |-12------12-|
|-14~Hold~-|   |-12~h~14-12-| Repeat
|----------|   |------------|
|----------|   |------------|

verse 2

Pre Chorus


Ryo's Part 2

|-------------|-------------|
|-------------|-------------|
|-------------|-----7---9-7-|
|-2-2-4-5-7-9-|-4-5-7---9-7-|
|-x-x-x-x-x-x-|-x-x-5---7-5-|
|-0-0-2-3-5-7-|-2-3---------|


|-------------|-------|  |----------------|
|-------------|-------|  |-15b~15---------|
|-------------|-----7-|  |----------------|
|-2-2-4-5-7-9-|-4-5-7-|  |----------12/14-|
|-x-x-x-x-x-x-|-x-x-5-|  |----------------|
|-0-0-2-3-5-7-|-2-3---|  |----------------|


               End
|-15-15-14-|   |-22-|
|-15-15-15-|   |-20-|
|----------|   |-21-|
|----------|   |----|
|----------|   |----|
|----------|   |----|


Chorus

Chorus

Outro:Jsst Play Riff, repeat till fade




Добавлено: 17.06.2012
Другие материалы по этой песне:
  • Аккорды и текст

Страница создана 17.06.2012
http://primanota.ru/do-as-infinity/rumble-fish-chords.htm
Привет, Гость.
Предлагаем пройти революционный курс по гитаре.
Подарок от PrimaNota.Ru, забирай!