PrimaNota.ru - самый крупный в мире бесплатный архив песенных текстов, аккордов, табулатур и нот


Do As Infinity - Ai No Uta - аккорды и текст, таба, бас-таба, видео

Регистрация Запомнить меня
Войти через:  Facebook Google Twitter Vk Yandex Mail.ru

Do As Infinity - Ai No Uta - аккорды и текст, таба, бас-таба, видео

Печатать
Просмотров: 137
Ai No Uta
Do As Infinity
Do As Infinity
Ai No Uta
Drop D Tuning
Tabbed By Alex Fragd (mavrick_45)
Mavrick_45@sugarray.com


Part one X2
G---------------------------------------------------------
D---------------------------------------------------------
A---12-5-5---7-7---4-4---5-5---5-5---7-7---9-9-9---12---
D---------------------------------------------------------


Part two
G--------------------------------------------------------------
D--------------------------------------------------------------
A---5—7-4-4-5-5--5-7-9-9-9--12--5-7-4-4-5-5--5-7-9-9-9--12---
D--------------------------------------------------------------


Part three
G-----------------------------------------
D-----------------------------------------
A---2-4-1-1-2-2--2-4-1-2/9--2-4-1-1-2-2---
D-----------------------------------------


Part four
G-------------------------------------------------------
D-------------------------------------------------------
A---2-2-2-2-2--4—-6—-9--16-16-16-16--4-4-4-4-/-16-16---
D-------------------------------------------------------


Part five X2
G---------------------------------------------------------------
D---------------------------------------------------------------
A-------------4444-5---5-8-66666-8-9-16-14-14-14-13-16-16-16---
D---44444444--------8------------------------------------------


Part six
G-------------------------------------------------------------------
D-------------------------------------------------------------------
A---2-2-2-2-----------------------------2-2-2-2---------------------
D------------4-4-4-4--3-3-3-3--4-4-4-4-----------4-4-4-4--3-3-3-3---

Repeat 1-5

Part seven
G---------------------------------------------------------------------------
D---------------------------------------------------------------------------
A---2-2-2-2----------------------------2-2-2-2--9-9-9-9--8-8-8--4-----------
D-----------4-4-4-4--3-3-3-3--4-4-4-4-----------------------------4-4-4-4---

Part eight
G---------------------------------------------------------------
D---------------------------------------------------------------
A------------1111-2222-33333-5-6-/-13-11-11-11-11-13-13-13-13---
D---11111111----------------------------------------------------


Part five


Part nine
G-----------------
D-----------------
A---2~-4~-/-16---
D-----------------


Part five


Part ten
G-------------------------------------------------
D-------------------------------------------------
A---13-13-11-11-9-9-8-8--4-4-8-8-6-6-/-13H14P13---
D-------------------------------------------------

   G-------------------------------------------
   D-------------------------------------------
   A---6-6-6-6-6—-8-9-—16-14-14-14-13-/-16----
   D-------------------------------------------


Part six
Part one X2
Добавлено: 14.07.2012
Другие материалы по этой песне:

Страница создана 21.02.2012
http://primanota.ru/do-as-infinity/ai-no-uta-chords.htm
Привет, Гость.
Предлагаем пройти революционный курс по гитаре.
Подарок от PrimaNota.Ru, забирай!