PrimaNota.ru - самый крупный в мире бесплатный архив песенных текстов, аккордов, табулатур и нот


Dld - Viernes - бас-таба, видео

Регистрация Запомнить меня
Войти через:  Facebook Google Twitter Vk Yandex Mail.ru

Dld - Viernes - бас-таба, видео

Печатать
Просмотров: 155
-------------------------------------------------------------------------------
                             Vienes - DLD
-------------------------------------------------------------------------------
Tabbed by: Haim Martínez
E-mail: jaimmartinez@homtail.com

Tuning:Standard

Intro/Verso
Esto se hace casi toda la rola ,es muy sencilla :D

G|------------------------|
D|---4--------------------|
A|-2---5~~\---7------5-4--|
E|----------5---3~~3------|

Coro

G|----------------------------------------------------------------------------|
D|---------------------------4p5h4--------------------------------------------|   x2
A|----5---------------5-55-55-------7h5---------------------------------------|
E|--3---3-33-3-33-3/5-------------------3-33-3-33-3\5-55-5-5-7-5-7-5/---------|

Al final del coro
G|---------------------------------------------------------------------------|
D|---------------------------------------------------------------------------|
A|---------------------------------------------------------------------------|
E|3-33-3-33-3\5-55-5-6~~-6/--------------------------------------------------|

Verso 2

G|------------------------|
D|---4--------------------|
A|-2---5~~\---7------5-4--|
E|----------5---3~~3------|


El resto de la canción lleva lo mismo ,solo el coro final cambia 
G|---------------------------------------------------------------------------|
D|---------------------------------------------------------------------------|
A|---------------------------------------------------------------------------|
E|-3-33-3-33-3\5-55-5-6-7~~~~~~----------------------------------------------|

¡Gracias! ,por favor comenten si les ayudo o si hace falta algún detalle :D


| /  slide arriba 
| \  slide abajo
| h  hammer-on
| p  pull-off

===============================================================================
Добавлено: 09.04.2015
Другие материалы по этой песне:

Страница создана 07.08.2014
http://primanota.ru/dld/viernes-chords.htm
Привет, Гость.
Предлагаем пройти революционный курс по гитаре.
Подарок от PrimaNota.Ru, забирай!